Oops, an error
Loading. Please wait.

Huellas De Amor chords

by Hechizo
44 views 1 this week
no commentswrite comment
1 2 3 4 5
3 more votes to show rating
add to favorites
×
Save as Personal and add changes to this tab that will be seen only by you. Learn more ›
×
You can save this tab as Personal to edit and correct it or add notes. All changes will be seen only by you. Learn more »
launch autoscroll
font size
0
reset
transpose
0
reset
simplify chords
display chords
guitar tuner
edit
Autoscroll
slow
fast
+/-
esc
set tempo
stop
Strumming
There is no strumming pattern for this song yet. and get +5 IQ
Adevertencia: Para que copies esta transcripción sin que te queden corridos
los acordes y las notas de los punteos, debes usar obligadamente la fuente:
'COURIER NEW' que es la que usamos en Átame.


                     |=======================|
                     |=== HUELLAS DE AMOR ===|
                     |===  H E C H I Z O  ===|
                     |=======================|

=INTRO=
         Em                                  Em               G        D
E--------12-12--12-12-10--15-12-10-12--------12-12--12-12-10--15-14-12-10---
B------12---------------12-----------------12---------------12--------------
G--9-12--------------------------------9-12---------------------------------
D---------------------------------------------------------------------------
A---------------------------------------------------------------------------
E---------------------------------------------------------------------------
                           'EN MI ALMA SE QUEDARON... ESTAS HUELLAS DE AMOR'

                    Am        G      Em
E--10-10--10-10-8------------------------15-14-12--
B----------------12-10--10-10-8-7-8-7--------------
G-------------------------------------9------------
D--------------------------------------------------
A--------------------------------------------------
E--------------------------------------------------
                                        '¡HECHIZO EH!'

         Em                                  Em               G        D
E--------12-12--12-12-10--15-12-10-12--------12-12--12-12-10--15-14-12-10---
B------12---------------12-----------------12---------------12--------------
G--9-12--------------------------------9-12---------------------------------
D---------------------------------------------------------------------------
A---------------------------------------------------------------------------
E---------------------------------------------------------------------------

                    Am        G      Em
E--10-10--10-10-8------------------------15-14-12--
B----------------12-10--10-10-8-7-8-7--------------
G-------------------------------------9------------
D--------------------------------------------------
A--------------------------------------------------
E--------------------------------------------------


=ESTROFA 1=
  Em                      G          Bm7   Bm
  QUEDAN LAS HUELLAS DE AMOR DE MI PASADO,
     Am          D          Em
  CLAVADAS EN MI ALMA SE GRABARON...
  Em                       G              D
  HUELLAS QUE NO HAN DE BORRAR MIS NUEVOS PASOS,
      C           D           Em
  PROFUNDAS Y LANTENTES SE AFERRARON...

=ESTROFA 2=
   C                       D                 G       D   Em
  HUELLAS QUE NO HAN DE BORRAR... UN NUEVO AMOR QUE APARECIÓ,
  C                D              G     D   Em
  MI CORAZÓN CREE QUE... CREE QUE YA LA OLVIDÓ,
  C                 D               G     D      Em
  CERRÓ SUS OJOS PENSÓ... PENSÓ QUE SÓLO UNA VEZ MÁS...
  Am       D             Em
  TEMÍA LATIR... POR UN AMOR...

 * Se repite la  =INTRO= *
 * Se repite =ESTROFA 1= *
 * Se repite =ESTROFA 2= *

=CORO=
   G            D           C
  HUELLAS, SON HUELLAS DE AMOR...
   G            D          Am7
  HUELLAS, SON HUELLAS DE AMOR...
   G            D           C
  HUELLAS, SON HUELLAS DE AMOR...
   G            D          Am7   Em
  HUELLAS, SON HUELLAS DE AMOR...


=PUNTEO PUENTE= (Se toca 4 veces)
           G                  Bm7               Em                 D
E-------12-15-14-12-15-12--12-14-12-10-14-10----15-14-12-12--12-14-12-10-10-
B--12-15--------------------------------------12----------------------------
G---------------------------------------------------------------------------
D---------------------------------------------------------------------------
A---------------------------------------------------------------------------
E---------------------------------------------------------------------------

=CORO FINAL=
   G            D           C
  HUELLAS, SON HUELLAS DE AMOR...
   G            D          Am7
  HUELLAS, SON HUELLAS DE AMOR...
   G            D           C
  HUELLAS, SON HUELLAS DE AMOR...
   G            D          Am7   Em         G  Em
  HUELLAS, SON HUELLAS DE AMOOOOHOOOR...

=FINAL=
 Se toca el =PUNTEO PUENTE=, disminuyendo el volume de la canción


Hola, me llamo Rodrigo, soy chileno, soy un cantante aficionado,
si tienes dudas, las que sean sobre esta canción, escríbeme a
rodrymicky@ y un Saludo pal: Marco, Joc, Aarón, Karen,
Yesleine, Pamela, Maluto, Roerto, KuroChan, Lord Caoz, Chika Denisse,
a mi primo Jonathan (Sweet Revenge), a Jocelyn, a la Laura y a la
Claudita...

       +EN MEMORIA DE MI HERMANITA ANDREA SUSANA MUÑOZ ALARCÓN+
               (*Abril 20,1989 - Diciembre 10,2004+)
          'Que el Señor te tenga en su gloria hermanita mía'

                     'Que el Señor les Bendiga'
Abril 27, 2005                                 ...El último romántico
==========================
Suggest correction
Creating personal tab
Creating personal tab
You can edit any tab online and save it as your Personal.

You can edit, replace or remove any tab part or add personal notes – all changes will be seen only by you.

Personal tabs can be accessed anytime from any device, even offline.
Learn more »
Give kudos to tab author, rate the tab!
1 2 3 4 5
comments
print report bad tab
guest
Wanna post a correction for this tab? Suggest correction