Oops, an error
Loading. Please wait.

Romance Ilegal tab

version 1
version 1

Whole song

by Hechizo
158 views 1 this week
no commentswrite comment
1 2 3 4 5
3 more votes to show rating
add to favorites
×
Save as Personal and add changes to this tab that will be seen only by you. Learn more ›
×
You can save this tab as Personal to edit and correct it or add notes. All changes will be seen only by you. Learn more »
launch autoscroll
font size
0
reset
how to read this tab
guitar tuner
edit
Autoscroll
slow
fast
+/-
esc
set tempo
stop
=INTRO=(Se toca 2 veces este punteo)
   G                             Em
E-----------7--- ---------3--- -------------8---- -------------
B--8-10-8-10-8-- --5-7-5-7-7-- --10-12-10-12-10-- ---------7---
G--------------- ------------- ------------------ --7-9-7-9-9--
D--------------- ------------- ------------------ -------------
A--------------- ------------- ------------------ -------------
E--------------- ------------- ------------------ -------------

   Am              C             D                  D7
E-----------7--- ---------3--- -------------8---- -------------
B--8-10-8-10-8-- --5-7-5-7-7-- --10-12-10-12-10-- ---------7---
G--------------- ------------- ------------------ --7-9-7-9-9--
D--------------- ------------- ------------------ -------------
A--------------- ------------- ------------------ -------------
E--------------- ------------- ------------------ -------------


=Estrofa=
      G                      Em       (Am7)
TE PROPONGO QUE VIVAMOS UN ROMANCE ILEGAL,
      Am            C            D
SI TE GUSTO Y TÚ ME GUSTAS NO LO EVITEMOS MÁS.
    G                           Em             (Am7)
PODEMOS SER MÁS QUE AMIGOS PERO SIN HABLAR DE AMOR,
      Am          C             D
TE PROPONGO QUE VIVAMOS NUESTRO ROMANCE ILEGAL...

=CORO=
     Am7        (G)        Em       C
PERO SIN ENAMORARNOS, PERO SIN ENAMORARMOS,
       Am           C           D
AUNQUE SUFRAMOS LOS DOS NUESTRO ROMANCE ILEGAL,
     C        (G)          Em        Am7
PERO SIN ENAMORARNOS, PERO SIN ENAMORARNOS,
      C           G         C              D
TÚ ME DAS Y YO TE DOY, PERO SIN HABLAR DE AMOR

   G                             Em
E-----------7--- ---------3--- -------------8---- -------------
B--8-10-8-10-8-- --5-7-5-7-7-- --10-12-10-12-10-- ---------7---
G--------------- ------------- ------------------ --7-9-7-9-9--
D--------------- ------------- ------------------ -------------
A--------------- ------------- ------------------ -------------
E--------------- ------------- ------------------ -------------
                             ...te propongo que vivamos...

   Am              C             D                  D7
E-----------7--- ---------3--- -------------8---- -------------
B--8-10-8-10-8-- --5-7-5-7-7-- --10-12-10-12-10-- ---------7---
G--------------- ------------- ------------------ --7-9-7-9-9--
D--------------- ------------- ------------------ -------------
A--------------- ------------- ------------------ -------------
E--------------- ------------- ------------------ -------------
 ...un romance ilegal...         ...hechizo

=(Se toca 2 veces este punteo)=

=Estrofa=
      G                      Em          (Am7)
SABEMOS QUE NO PODEMOS QUERERNOS EN LIBERTAD,
        Am         C             D
LOS DOS LLEVAMOS CADENAS, NO NOS PODEMOS AMAR.
        G                        Em       (Am7)
PERO EL FUEGO QUE NOS QUEMA NO PODEMOS APAGAR
      Am          C             D
TE PROPONGO QUE VIVAMOS NUESTRO ROMANCE ILEGAL...

=CORO=
     Am7        (G)        Em       C
PERO SIN ENAMORARNOS, PERO SIN ENAMORARMOS,
       Am           C           D
AUNQUE SUFRAMOS LOS DOS NUESTRO ROMANCE ILEGAL,
     C        (G)          Em        Am7
PERO SIN ENAMORARNOS, PERO SIN ENAMORARNOS,
      C           G         C              D
TÚ ME DAS Y YO TE DOY, PERO SIN HABLAR DE AMOR

=SOLO de Guitarra=
   G               Em            Am7       C     D
E------------------------------------------------0-2-0-0-2-0------
B----------0-----0----------------------0-1-0-1-3-----3-----3-1-0-
G-0-0-0-0-2---0-2-0----0-0------2-2-2-2----2---------------------2
D------------------4-2----4-2-------------------------------------
A-----------------------------------------------------------------
E-----------------------------------------------------------------

   G                 Em             Am7            C
E------------7------7------------------------------------------
B--8-8-8-8-10---8-10-8-7---8-8-7----10-10-10-10-12-13-10-12-13-
G-----------------------9-------9------------------------------
D--------------------------------------------------------------
A--------------------------------------------------------------
E--------------------------------------------------------------

   D
E--10-12-14-12-10-12-14-12-10---------
B----------------------------13-12-10-
G-------------------------------------
D-------------------------------------
A-------------------------------------
E-------------------------------------

=CORO=
     Am7        (G)        Em       C
PERO SIN ENAMORARNOS, PERO SIN ENAMORARMOS,
       Am           C           D
AUNQUE SUFRAMOS LOS DOS NUESTRO ROMANCE ILEGAL,
     C        (G)          Em        Am7
PERO SIN ENAMORARNOS, PERO SIN ENAMORARNOS,
      C           G         C              D
TÚ ME DAS Y YO TE DOY, PERO SIN HABLAR DE AMOR

=final=
   G                             Em
E-----------7--- ---------3--- -------------8---- -------------
B--8-10-8-10-8-- --5-7-5-7-7-- --10-12-10-12-10-- ---------7---
G--------------- ------------- ------------------ --7-9-7-9-9--
D--------------- ------------- ------------------ -------------
A--------------- ------------- ------------------ -------------
E--------------- ------------- ------------------ -------------

   Am              C             D                  D7
E-----------7--- ---------3--- -------------8---- -------------
B--8-10-8-10-8-- --5-7-5-7-7-- --10-12-10-12-10-- ---------7---
G--------------- ------------- ------------------ --7-9-7-9-9--
D--------------- ------------- ------------------ -------------
A--------------- ------------- ------------------ -------------
E--------------- ------------- ------------------ -------------
                 ...sin amoooooooor...
(Se toca el punteo 2 veces y pa' darle un bonito final a la
canción haz un suave rasgueo a la guitarra con el acorde G )

============================== FIN ==============================

ALGUNAS INDICACIONES:

C = DO
D = RE
E = MI
F = FA
G = SOL
A = LA
B = SI

m = acorde menor
(EJEMPLO: Em = Mi menor)

POSTURAS:

 ====Am*====    ====Am7====   =====G=====   =====C=====
 E B G D A E    E B G D A E   E B G D A E   E B G D A E
 X | | | O |    X | | | O |   | | | | | |   X | | | O |
 X | O O | |    X | O | | |   | O | | | |   X | O | | |
 X | | | | O    X | | | | |   O | | | | O   X O | | | |
 X | | | | |    X | | | | |   | | | | | |   X | | | | |

 =====D=====    ====Am=====   ====Em=====   ====D7=====
 E B G D A E    E B G D A E   E B G D A E   E B G D A E
 X X | | | |    X | | | O |   | | | | | |   X X | | O |
 X X | O | O    X | O O | |   | O O | | |   X X | O | O
 X X | | O |    X | | | | |   | | | | | |   X X | | | |
 X X | | | |    X | | | | |   | | | | | |   X X | | | |

Lo círculos indican la CUERDA y TRASTE donde se pulsa el acorde,
Las X señalan que NO se pulsa la(s) cuerda(s) indicada(s).
Cualquier duda que tengan escríbanme a rodrymicky@ y
ojalá que les guste esta cumbia tanto como a mí, ¡Grande Hechizo!
Difrútenla cabros... y un saludo pal Marco,Joc,Simón,Aarón,Yesleine,
Karen,Claudia,Laura,al Grupo Sweet Revenge a su vocalbajita mi primo
Jonathan y un besito pa' mi pierna  te quiero mucho bebé.

           En memoria de Andrea Susana Muñoz Alarcón
             (*Abril 20,1989 - Diciembre 10,2005+)
      'Que el Señor te tenga en la gloria hermanita mía'

                   'Que el Señor les Bendiga'
Feb.16, 2005                                  ...El Último Romántico
=========================

            
            
Suggest correction
Creating personal tab
Creating personal tab
You can edit any tab online and save it as your Personal.

You can edit, replace or remove any tab part or add personal notes – all changes will be seen only by you.

Personal tabs can be accessed anytime from any device, even offline.
Learn more »
Give kudos to tab author, rate the tab!
1 2 3 4 5
comments
print report bad tab
guest
Wanna post a correction for this tab? Suggest correction