Oops, an error
Loading. Please wait.

Romance Ilegal tab

version 2
version 2

Whole song

by Hechizo
65 views 3 this week
no commentswrite comment
1 2 3 4 5
3 more votes to show rating
add to favorites
×
Save as Personal and add changes to this tab that will be seen only by you. Learn more ›
×
You can save this tab as Personal to edit and correct it or add notes. All changes will be seen only by you. Learn more »
launch autoscroll
font size
0
reset
how to read this tab
guitar tuner
edit
Autoscroll
slow
fast
+/-
esc
set tempo
stop
Hechizo
Romance Ilegal
(TAB)Enviado por Guillermo Santander
Hechizo- Romance ilegal

   Intro

    G
 e|---7---7--------10----10-|
 b|-8---8---10--12----12----|
 g|-------------------------|

    Em
 e|---3---3------7---7-|
 b|-5---5---7--8---8---|
 g|--------------------|

    Am
 e|----8----8--------12----12-|
 b|-10---10---12--13----13----|
 g|---------------------------|

    D
 e|---5---5-------8-----8-|
 b|-7---7---8--10----10---|
 g|-----------------------|


 =Acordes=

     G        Em       Am
 e|-3--7-| |-0--7-| |-5--8-|
 b|-3--8-| |-0--8-| |-5--10|
 g|-4--7-| |-0--9-| |-5--9-|
 d|-x--x-| |-x--x-| |-x--x-|
 a|-x--x-| |-x--x-| |-x--x-|
 E|-x--x-| |-x--x-| |-x--x-|


     D         C
 e|-5--10-| |-3--8-|
 b|-7--10-| |-5--9-|
 g|-7--11-| |-5--9-|
 d|-x--x--| |-x--x-|
 a|-x--x--| |-x--x-|
 E|-x--x--| |-x--x-|

 X: no se tocan.

 esas son las notas que se ocupan
 en toda la canción, tienen la misma
 nota pero en dos diferentes posiciones.
 cualquiera de las dos sirve.

 Letra

        G                    Em
 TE PROPONGO QUE VIVAMOS UN ROMANCE ILEGAL
        Am                        D
 SI TE GUSTO Y TÚ ME GUSTAS NO LO EVITEMOS MÁS
     G                           Em
 PODEMOS SER MÁS QUE AMIGOS PERO SIN HABLAR DE AMOR
        Am                        D
 TE PROPONGO QUE VIVAMOS NUESTRO ROMANCE ILEGAL.

 CORO

       C        D            G        Em
 PERO SIN ENAMORARNOS, PERO SIN ENAMORARMOS
         Am                       D
 AUNQUE SUFRAMOS LOS DOS NUESTRO ROMANCE ILEGAL
       C        D            G        Em
 PERO SIN ENAMORARNOS, PERO SIN ENAMORARNOS
       Am                    D
 TÚ ME DAS Y YO TE DOY, PERO SIN HABLAR DE AMOR.

 .............

            
            
Suggest correction
Creating personal tab
Creating personal tab
You can edit any tab online and save it as your Personal.

You can edit, replace or remove any tab part or add personal notes – all changes will be seen only by you.

Personal tabs can be accessed anytime from any device, even offline.
Learn more »
Give kudos to tab author, rate the tab!
1 2 3 4 5
comments
print report bad tab
guest
Wanna post a correction for this tab? Suggest correction