Oops, an error
Loading. Please wait.

3 2 1 Tab

2,545 views 1 this week
no commentswrite comment
1 2 3 4 5
worth learning
x 2
add to favorites
launch autoscroll
font size
0
reset
how to read this tab
guitar tuner
Tab Pro tools
  • play this tab
  • loop segment
  • change instrument
  • show fretboard
  • metronome
Autoscroll
slow
fast
+/-
esc
set tempo
stop
Contributor
Difficulty
novice
Hedley
3,2,1
Hedley
Tabbed by: Jeremy Waterman
Tuning - Drop C: CGCFAD

Wow, this was a crazy hard song. Never tabbed in Drop C before. Actually, before this, I
never even tuned down to drop C. xD I didn't know how. But anyways, Hedley sucks, so 
tab
should be good. I love them, so I hope they're proud of me. *You guys better be coming  back
to Halifax soon!* Email me with love letters, corrections, or anything else at addero@hotmail.com
Also, feel free to send me pictures of ducks. I always love those.

Legend:
/ Slide Up
\ Slide Down
. Palm Mute
h Hammer On
p Pull Off
b Bend

In my original version, I actually played most of the riffs and everything on C,G and C, but
I thought the verse got too confusing like that, so I changed EVERYTHING to make it eaier
to read. If you don't like it, I'll post up the original in comments. Just let me know if
you want it.

Intro:
D[------------------------------]
A[------------------------------]
F[-6--6\5\-4\3-3----------------]
C[-6--6\5\-4\3-3-/4--4\3\-2\1-1-]
G[-4--4\3\-2\1-1-/4--4\3\-2\1-1-]
C[---------------/4--4\3\-2\1-1-]

D[----------------------------------]
A[----------------------------------]
F[-6--6\5\-4\3-3----------------/-6-]
C[-6--6\5\-4\3-3-/4--4\3\-2\1-1-/-6-]
G[-4--4\3\-2\1-1-/4--4\3\-2\1-1-/-4-]
C[---------------/4--4\3\-2\1-1-----]

Verse 1:
D[----------------------------------------------------]
A[----------------------------------------------------]
F[-6666666666666666-----------------------------------]
C[-6666666666666666/6666666666666666\4-44-4-4-4444444-]
G[-4444444444444444/6666666666666666\4-44-4-4-4444444-]
C[-----------------/6666666666666666\4-44-4-4-4444444-]
pm ................ ...............     . . . .......

D[----------------------------------]
A[----------------------------------]
F[-6--6\5\-4\3-3----------------/-6-]
C[-6--6\5\-4\3-3-/4--4\3\-2\1-1-/-6-]
G[-4--4\3\-2\1-1-/4--4\3\-2\1-1-/-4-]
C[---------------/4--4\3\-2\1-1-----]

D[----------------------------------------------------]
A[----------------------------------------------------]
F[-6666666666666666-----------------------------------]
C[-6666666666666666/6666666666666666\4-44-4-4-4444444-]
G[-4444444444444444/6666666666666666\4-44-4-4-4444444-]
C[-----------------/6666666666666666\4-44-4-4-4444444-]
pm ................ ...............     . . . .......

D[------------------------------]
A[------------------------------]
F[-6--6\5\-4\3-3----------------]
C[-6--6\5\-4\3-3-/4--4\3\-2\1-1-]
G[-4--4\3\-2\1-1-/4--4\3\-2\1-1-]
C[---------------/4--4\3\-2\1-1-]

Pre-Chorus:
D[------------------------------------------------------]
A[------------------------------------------------------]
F[------------------------------------------------------]
C[-4444444444444444--444444444444444--44444444444444444-]
G[-4444444444444444--444444444444444--44444444444444444-]
C[-4444444444444444--444444444444444--44444444444444444-]
pm ................  ...............  .................

D[-----------------]
A[-----------------]
F[-----------------]
C[-666h888h9--9999-]
G[-666h888h9--9999-]
C[-666h888h9--9999-]
pm ... ...

Chorus:
D[-------------------------------------]
A[-------------------------------------]
F[-66666666----------------------------]
C[-66666666/66666666/88888888\66666666-]
G[-44444444/66666666/88888888\66666666-]
C[---------/66666666/88888888\66666666-]

D[--------------------------------------]
A[--------------------------------------]
F[--------------------------------------]
C[-/88888888\66666666/88888888\44444444-]
G[-/88888888\66666666/88888888\44444444-] (Chorus x2)
C[-/88888888\66666666/88888888\44444444-]

Post-Chorus 1:
D[--------------]
A[--------------]
F[--------------]
C[-8--8h10p6\4--]
G[-8--8h10p6\4--] (let ring)
C[-8--8h10p6\4--]

Verse 2:
D[----------------------------------------------------]
A[----------------------------------------------------]
F[-6--------------------------------------------------]
C[-6-(let-ring)----------------------4-44-4-4-4444444-]
G[-4---------------------------------4-44-4-4-4444444-]
C[-----------------------------------4-44-4-4-4444444-]
pm          -all bass here-             . . . .......

    Guitar 1:
  D[----------------------------------]
  A[----------------------------------]
  F[-6--6\5\-4\3-3----------------/-6-]
  C[-6--6\5\-4\3-3-/4--4\3\-2\1-1-/-6-]
  G[-4--4\3\-2\1-1-/4--4\3\-2\1-1-/-4-]
  C[---------------/4--4\3\-2\1-1-----]
    Guitar 2:
  D[-9b---9b8b7b-----9b---9b8b7b----9-]
  A[-------------99--------------99---]
  F[----------------------------------]
  C[----------------------------------]
  G[----------------------------------]
  C[----------------------------------]

D[----------------------------------------------------]
A[----------------------------------------------------]
F[-6666666666666666-----------------------------------]
C[-6666666666666666/6666666666666666\4-44-4-4-4444444-]
G[-4444444444444444/6666666666666666\4-44-4-4-4444444-]
C[-----------------/6666666666666666\4-44-4-4-4444444-]
pm ................ ...............     . . . .......

D[------------------------------]
A[------------------------------]
F[-6--6\5\-4\3-3----------------]
C[-6--6\5\-4\3-3-/4--4\3\-2\1-1-]
G[-4--4\3\-2\1-1-/4--4\3\-2\1-1-]
C[---------------/4--4\3\-2\1-1-]

Pre-Chorus:
D[----------------------------------------------------]
A[----------------------------------------------------]
F[----------------------------------------------------]
C[-4444444444444444-444444444444444-44444444444444444-]
G[-4444444444444444-444444444444444-44444444444444444-]
C[-4444444444444444-444444444444444-44444444444444444-]
pm ................ ............... .................

D[-----------------]
A[-----------------]
F[-----------------]
C[-666h888h9--9999-]
G[-666h888h9--9999-] (let ring)
C[-666h888h9--9999-]
pm ... ...

Chorus:
D[-------------------------------------]
A[-------------------------------------]
F[-66666666----------------------------]
C[-66666666/66666666/88888888\66666666-]
G[-44444444/66666666/88888888\66666666-]
C[---------/66666666/88888888\66666666-]

D[--------------------------------------]
A[--------------------------------------]
F[--------------------------------------]
C[-/88888888\66666666/88888888\44444444-]
G[-/88888888\66666666/88888888\44444444-] (Chorus x2)
C[-/88888888\66666666/88888888\44444444-]

Post-Chorus 2:
    Guitar 1:
  D[---------------|----------------|----------------|--------]
  A[---------------|----------------|----------------|--------]
  F[---------------|----------------|----------------|--------]
  C[-666-------6\4-|--666-------6/8-|--666-------6\4-|--666---]
  G[-666-------6\4-|--666-------6/8-|--666-------6\4-|--666---]
  C[-666-------6\4-|--666-------6/8-|--666-------6\4-|--666---]
  pm ...              ...              ...              ...
    Guitar 2:
  D[----------------------------------------------------------------]
  A[----------------------------------------------------------------]
  F[----------13---------------13/15------------13---------------13-]
  C[-11h13p11---------11h13p11---------11h13p11---------11h13p11----]
  G[----------------------------------------------------------------]
  C[----------------------------------------------------------------]

Pre-Chorus:
    Guitar 1:
  D[-------------------------------------]
  A[-------------------------------------]
  F[-------------------------------------]
  C[--4444444444444444--444444444444444--]
  G[--4444444444444444--444444444444444--] (x2)
  C[--4444444444444444--444444444444444--]
  pm  ................  ...............
    Guitar 2:
  D[-----------------------------13b-----]
  A[-14141313----------1414131316---1613-]
  F[---------1513------------------------]
  C[-------------151311------------------]
  G[-------------------------------------] (x2)
  C[-------------------------------------]

    Guitar 1:
  D[-------------------------------------]
  A[-------------------------------------]
  F[-------------------------------------]
  C[--4444444444444444--444444444444444--]
  G[--4444444444444444--444444444444444--]
  C[--4444444444444444--444444444444444--]
  pm  ................  ...............
    Guitar 2:
  D[----------------------]
  A[-14141313-------------]
  F[---------1513------13-]
  C[-------------151315---]
  G[----------------------]
  C[----------------------]

D[----------------]
A[----------------]
F[----------------]
C[-6666h8888h9999-]
G[-6666h8888h9999-]
C[-6666h8888h9999-]
pm .... .... ....

Chorus:
D[-------------------------------------]
A[-------------------------------------]
F[-66666666----------------------------]
C[-66666666/66666666/88888888\66666666-]
G[-44444444/66666666/88888888\66666666-]
C[---------/66666666/88888888\66666666-]

D[--------------------------------------]
A[--------------------------------------]
F[--------------------------------------]
C[-/88888888\66666666/88888888\44444444-]
G[-/88888888\66666666/88888888\44444444-] (Chorus x2)
C[-/88888888\66666666/88888888\44444444-]

Bridge:
    Guitar 1:
  D[---------------------------------]
  A[---------------------------------]
  F[---------------------------------]
  C[-8-8-88--6-----------------------]
  G[-8-8-88--6-(let-ring)------------] (x2)
  C[-8-8-88--6-----------------------]
    Guitar 2:
  D[---------------------------------]
  A[---------------------------------]
  F[----------13---------------13/15-]
  C[-11h13p11---------11h13p11-------]
  G[---------------------------------] (x2)
  C[---------------------------------]

    Guitar 1:
  D[---------------------------]
  A[---------------------------]
  F[---------------------------]
  C[-8---8---6-----------------]
  G[-8---8---6-(let-ring)------] (x2)
  C[-8---8---6-----------------]
  pm .   .
    Guitar 2:
  D[---------------------------|---------------------------]
  A[-14141313------------------|-14141313------------------]
  F[---------1513--------------|---------1513------13------]
  C[-------------1513-11-------|-------------151315--------]
  G[---------------------------|---------------------------]
  C[---------------------------|---------------------------]

D[------------------]
A[------------------]
F[------------------]
C[-6666666666666666-]
G[-6666666666666666-]
C[-6666666666666666-]
pm ................

Outro:
    Guitar 1:
  D[------------------------------]
  A[------------------------------]
  F[-6--6\5\-4\3-3----------------]
  C[-6--6\5\-4\3-3-/4--4\3\-2\1-1-]
  G[-4--4\3\-2\1-1-/4--4\3\-2\1-1-]
  C[---------------/4--4\3\-2\1-1-]
    Guitar 2:
  D[-9b--9b8b7b-----9b--9b8b7b----]
  A[------------99-------------99-]
  F[------------------------------]
  C[------------------------------]
  G[------------------------------]
  C[------------------------------]

    Guitar 1:
  D[----------------------------------]
  A[----------------------------------]
  F[-6--6\5\-4\3-3----------------/-6-]
  C[-6--6\5\-4\3-3-/4--4\3\-2\1-1-/-6-]
  G[-4--4\3\-2\1-1-/4--4\3\-2\1-1-/-4-] (palm mute last note)
  C[---------------/4--4\3\-2\1-1-----]
    Guitar 2:
  D[-9b--9b8b7b-----9b--9b8b7b-\-/-99-]
  A[------------99--------------------]
  F[----------------------------------]
  C[----------------------------------]
  G[----------------------------------] (palm mute last note)
  C[----------------------------------]
comments
We did not receive enough feedback on this tab! Please rate:
print report bad tab
1 2 3 4 5
I want to post or [tab]
guest
You may want to rate the tab now too:
select rating
Please do not post tabs as comments. Select "correction" instead!