Oops, an error
Loading. Please wait.

Beautiful Tab

version 3
version 3

Whole song

1,239 views 1 this week
1 commentread comment
1 2 3 4 5
please rate
add to favorites
launch autoscroll
font size
0
reset
how to read this tab
guitar tuner
Tab Pro tools
  • play this tab
  • loop segment
  • change instrument
  • show fretboard
  • metronome
×
Best way to learn
"Beautiful"
Autoscroll
slow
fast
+/-
esc
set tempo
stop
Contributor
Difficulty
Tuning
intermediate
D# G# C# F# A# D#
Beautiful - Hedley

h = hammer-on
~ = let note ring
X = mute string

Chords:
3X0233
320033
X30033
X20033
X00033
3X0033


Intro:
|----------------3-----3----------|
|--3-----3-----3-----3-----3------|
|-------0-----0-0---0-0---0-----0-|
|----------------------------0h2--|
|----0h2---2h3-----2-----0--------|
|-3-------------------------------|
PLAY THROUGH 4 TIMES


Verse:
|------------------------------------3-----3----------|
|--3-3--3-3--3-3--3-3--3-----3-----3-----3-----3------|
|---------------------------0-----0-0---0-0---0-----0-|
|------------------------------------------------0h2--|
|------3-3--2-2--0-0-----0h2---2h3-----2-----0--------|
|-3-3-----------------3-------------------------------|
                                             Isn't she..
PLAY THROUGH 2 TIMES


Chorus:
|-------------------------------------|----------------------3~--------|
|--3-3-3-3--3-3-3-3--3-3-3-3--3-3-3-3-|------3--3---3--3---3-----------|
|-------------------------------------|-----0--0---0--0---0-0---REPEAT-|
|-------------------------------------|--------------------------ONCE--|
|-3-3-3-3-----------3-3-3-3-----------|----3--3---2--2---0-------------|
|----------3-3-3-3-----------3-3-3-3--|--------------------------------|
    Beautiful..                  Isn't she everything you need..
PLAY THROUGH 1 TIME


The interlude is identical to the intro-riff, but is played ONLY 2 times through.

The sequence above is played through 2 times. Toward the end of the second time, Jacob 
begins to play chords.

The chord below leads into the bridge.


End of Chorus: (SECOND TIME)
|--------------------------------3-|
|------------3--3---3--3---------3-|
|-----------0--0---0--0----------2-|
|--------------------------------0-|
|----------3--3---2--2-----------X-|
|--------------------------------3-|
 Isn't she everything you need..


Bridge: (ADD A ROOT BASS TO EACH CHORD)
|------3--3--3--3-|
|------3--3--3--3-|
|------0--0--0--0-|
|------0--0--0--0-|
|------2--3--2--0-|
|------3--X--X--X-|
 Yeah!          Isn't she..
PLAY THROUGH 4 TIMES


Last Chorus:
|-3-----3-----3-----3------|---3-------3-------3-------3-------3------3~-|
|-3-----3-----3-----3------|---3-------3-------3-------3-------3------3~-|
|-0-----0-----0-----0------|---0-------0-------0-------0-------0------0~-|
|-0-----0-----0-----0------|---0-------0-------0-------0-------0------0~-|
|-3-----2-----3-----2------|---3-------2-------0-------3-------2------0~-|
|-X-----3-----X-----3------|---X-------X-------X-------X-------X------X--|
  Beautiful..        Isn't she everything you need..
PLAY THROUGH 1 TIME


The outro is identical to the interlude/into-riff. End the song on a G chord (3X0033).

GO PRACTISE!
comments
We did not receive enough feedback on this tab! Please rate:
print report bad tab
1 2 3 4 5
1 comment total.
0 reply
billkickwitt wrote on September 22 2015, 07:15 pm

well done, sounds a bit off at the beginning though

I want to post or [tab]
guest
You may want to rate the tab now too:
select rating
Please do not post tabs as comments. Select "correction" instead!