Oops, an error
Loading. Please wait.

Beautiful tab

version 4
version 4

Whole song

by Hedley
247 views 1 this week
no commentswrite comment
1 2 3 4 5
x 3
add to favorites
×
Save as Personal and add changes to this tab that will be seen only by you. Learn more ›
×
You can save this tab as Personal to edit and correct it or add notes. All changes will be seen only by you. Learn more »
launch autoscroll
font size
0
reset
how to read this tab
guitar tuner
edit
Autoscroll
slow
fast
+/-
esc
set tempo
stop
-------------------------------------------------------------------------------
                             BEAUTIFUL-HEDLEY
-------------------------------------------------------------------------------
Tabbed by:billkickwitt
e-mail:billkickwitt@gmail.com

Tuning: half step down

hi guys this is beautiful from hedley's album storms. this is the live version, so
it might sound a bit off if you play it with the song. pretty accurate though, hope you enjoy.

eb|------------------3---------3----------------------------------------------|
bb|--------------3---------3--------------------------------------------------|
gb|------------0---0-----0---0----------0----(4x)-----------------------------|
db|---------------------------------0h2---------------------------------------|
ab|----0h2-2h3---------2---------0--------------------------------------------|
eb|--3------------------------------------------------------------------------|
   (city cold...)  (someone's old...)
eb|--------------------------------------------------3---------3--------------|
bb|----3---3---3---3---3---3---3---3-------------3---------3------------------|
gb|---------------------------------(2x)-------0---0-----0---0---------0-(2x)-|
db|----------------------------------------------------------------0h2--------|
ab|----------3---3---2---2---0---0-----0h2-2h3---------2---------0------------|
eb|--3---3---------------------------3----------------------------------------|
   (isn't she...)
eb|-----------------------------------------------------------------------3---|
bb|----3---3---3---3---3---3---3---3---------3-----3------3-----3-----3-------|
gb|----------------------------------(2x)--0-----0-----0------0-----0---0-(2x)|
db|---------------------------------------------------------------------------|
ab|--3---3---3---3-----------------------3-----3-----2------2-----0-----------|
eb|------------------3---3---3---3--------------------------------------------|
   (yeah...)
eb|------------------3---------3----------------------------------------------|
bb|--------------3---------3--------------------------------------------------|
gb|------------0---0-----0---0----------0----(2x)-----------------------------|
db|---------------------------------0h2---------------------------------------|
ab|----0h2-2h3---------2---------0--------------------------------------------|
eb|--3------------------------------------------------------------------------|
   (child of earth..) (make you laugh...)
eb|--------------------------------------------------3---------3--------------|
bb|----3---3---3---3---3---3---3---3-------------3---------3------------------|
gb|--------------------------------------------0---0-----0---0---------0-(2x)-|
db|----------------------------------------------------------------0h2--------|
ab|----------3---3---2---2---0---0-----0h2-2h3---------2---------0------------|
eb|--3---3---------------------------3----------------------------------------|
   (isn't she...)
eb|-----------------------------------------------------------------------3---|
bb|----3---3---3---3---3---3---3---3---------3-----3------3-----3-----3-------|
gb|----------------------------------(2x)--0-----0-----0------0-----0---0-(2x)|
db|---------------------------------------------------------------------------|
ab|--3---3---3---3-----------------------3-----3-----2------2-----0-----------|
eb|------------------3---3---3---3--------------------------------------------|

right here is just a G chord on a 1 beat strum pattern, continuing through the chorus.
until after the chorus, strum the G 6 more times, then do

eb|------------------3---------3----------------------------------------------|
bb|--------------3---------3--------------------------------------------------|
gb|------------0---0-----0---0----------0----(4x)-----------------------------|
db|---------------------------------0h2---------------------------------------|
ab|----0h2-2h3---------2---------0--------------------------------------------|
eb|--3------------------------------------------------------------------------|
   last time you do it, slow it down at the end, then end with another g chord.
eb|---------------------------------------------------------------------------|
bb|---------------------------------------------------------------------------|
gb|---------------------------------------------------------------------------|
Db|---------------------------------------------------------------------------|
Ab|---------------------------------------------------------------------------|
eb|---------------------------------------------------------------------------|


************************************
| h   hammer-on
************************************
Suggest correction
Creating personal tab
Creating personal tab
You can edit any tab online and save it as your Personal.

You can edit, replace or remove any tab part or add personal notes – all changes will be seen only by you.

Personal tabs can be accessed anytime from any device, even offline.
Learn more »
Give kudos to tab author, rate the tab!
1 2 3 4 5
comments
print report bad tab
guest
You may want to rate the tab now too:
select rating
Wanna post a correction for this tab? Suggest correction