Oops, an error
Loading. Please wait.

Brave New World Tab

version 1
version 1

Solo

Whole song

2,649 views 1 this week
no commentswrite comment
1 2 3 4 5
please rate
add to favorites
launch autoscroll
font size
0
reset
how to read this tab
guitar tuner
Tab Pro tools
  • play this tab
  • loop segment
  • change instrument
  • show fretboard
  • metronome
Autoscroll
slow
fast
+/-
esc
set tempo
stop
Brave New World

For the Verses and the Outro, I didn't really put the strumming patterns, but if you 
to the song enough, you can figure it out pretty easily, so dont worry.

Intro/Verse

e-----------------------------------------------------------------|
b---2----------------------------3--------------------------------|
g---2-------1---------2----------2--------------------------------|
d---2-------2---------4----------0--------------------------------|
a---0-------2---------4-------------------------------------------|
e-----------0---------2-------------------------------------------|


Chorus

(same chords as verse, just strummed on the 8th notes throughout each bar)
e-------------------------------------------------------|
b-2------------------------3----------------------------|
g-2----1--------2----------2----------------------------|
d-2----2--------4----------0----------------------------|
a-0----2--------4---------------------------------------|
e------0--------2---------------------------------------|


Interlude Part

e---9-9-9-7--9-9-9-7--5-5-5-4--5-5-5-4------------------------|
b-------------------------------------------------------------|
g-------------------------------------------------------------|
d-------------------------------------------------------------|
a-------------------------------------------------------------|
e-------------------------------------------------------------|

Midway through the Interlude, Guitar 2 comes in with a guitar solo

Guitar Solo
e-------------------------------------------------------------|
b--10-----9----9/10---10/12\10------10/12\10------------------|
g-------------------------------------------------------------|
d-------------------------------------------------------------|
a-------------------------------------------------------------|
e-------------------------------------------------------------|

e---11/12---12/14-12----12\9-10---10\7-9----10----------------|
b-------------------------------------------------------------|
g-------------------------------------------------------------|
d-------------------------------------------------------------|
a-------------------------------------------------------------|
e-------------------------------------------------------------|

After the Guitar Solo, its again just guitar 1 with the Interlude Part
After Jacob comes in with the vocals, guitar two comes in with this part.

(gradually getting louder)
(strum chords as according to song)
e------------------------------------------------------------------|
b------------------------------------------------------------------|
g------------------------------------------------------------------|
d-2--------------------------7-------------------------------------|
a-0-----2---------4----------5-------------------------------------|
e-------0---------2------------------------------------------------|


Outro Guitar One
(with distortion, strum chords throughout each bar)
e-----------------------------------------------------------------|
b-----------------------------------------------------------------|
g-------------------------2-----------7---------------------------|
d---4---------2-----------2-----------7---------------------------|
a---4---------2-----------0-----------5---------------------------|
e---2---------0---------------------------------------------------|

Outro Guitar Two

e--55555555--77777777--99999999--1010101010101010-------------|
b-------------------------------------------------------------|
g-------------------------------------------------------------|
d-------------------------------------------------------------|
a-------------------------------------------------------------|
e-------------------------------------------------------------|

Last Part (end of song)
e-----------------------------------------------------------------|
b------------------------2---------3------------------------------|
g----2----------1--------2---------2------------------------------|
d----4----------2--------2---------0------------------------------|
a----4----------2--------0----------------------------------------|
e----2----------0-------------------------------------------------|
comments
We did not receive enough feedback on this tab! Please rate:
print report bad tab
1 2 3 4 5
I want to post or [tab]
guest
You may want to rate the tab now too:
select rating
Please do not post tabs as comments. Select "correction" instead!