Oops, an error
Loading. Please wait.

Brave New World Tab

version 3
version 3

Solo

Whole song

8,176 views 3 this week
1 commentread comment
1 2 3 4 5
excellent!
x 5
add to favorites
launch autoscroll
font size
0
reset
how to read this tab
guitar tuner
Tab Pro tools
  • play this tab
  • loop segment
  • change instrument
  • show fretboard
  • metronome
Autoscroll
slow
fast
+/-
esc
set tempo
stop
Contributor
Difficulty
novice
This is a song from Hedley's new album, Famous Last Words, I like it and I the other 
weren't sounding rigt to my ears so I decide to give it a try misef. hope you'll enjoy it.
xXx~Tamara~xXx


Chords used:
  Dadd9  -  A   -  Bm  -   G
e|--X-------X-------2------3-----|
B|--3-------2-------3------3-----|
G|--2-------2-------4------X-----|
D|--X-------2-------4------X-----|
A|--X-------X-------2------2-----|
E|--X-------X-------2------3-----|


Intro/Verse

e------0--------0--------------------------0--------0--------2-0-----0---|
b----3---3----3---3----2-3-2----2-3-2----3---3----3---3----3-------3---3-|
g--------------------2--------2--------4--------4--------0-------0-------|
d--0--------0------------------------------------------------------------|2X
a------------------------------------------------------------------------|
e------------------------------------------------------------------------|

e------------------------------------------3-----------------------------|
b-------2-0----------2/3-----------2/3-----3-----------------------------|
g---4------------2-------------2-----------x-----------------------------|
d------------------2-------------2---------x-----------------------------|
a-2---2--------0-------------0-------------2-----------------------------|
e------------------------------------------3-----------------------------|

Verse 1:

Dadd9
hello
    A
I love you
           Bm           G
won't you tell me your name
Dadd9
hello
    A               Bm           G
I need you like a bullet to my brain
Bm                              A
It seems I'm never breaking free
                                G
while you sit and watch me bleed
                                         G
when the night falls there's nowhere to go


Chorus:
         A          Bm               G
I won't let you win, let you see me cry
         A            Bm            G
I can't give you that satisfaction this time
              Bm             G
Do you really get what you need
             Bm      G
beating the hell of me?
         A           Bm          G
I'm so tired getting up off the floor
                        Dadd9      A
I won't take this anymore
                      Bm         G
I won't take this anymore


Verse 2:
   Dadd9            A
So low, but still breathing
      Bm                G
funny how you show you care
   Dadd9        A
is hell still beneath me
     Bm           G
or am I already there?
Bm                              A
It seems I'm never breaking free
                                G
while you sit and watch me bleed
                                         G
when the night falls there's nowhere to go

Chorus:
         A          Bm               G
I won't let you win, let you see me cry
         A            Bm            G
I can't give you that satisfaction this time
              Bm             G
Do you really get what you need
             Bm      G
beating the hell of me?
         A           Bm          G
I'm so tired getting up off the floor
                        A
I won't take this anymore


Solo:

   A            Bm               A               Bm
e-----------------------------------------------------------------------|
b---------------------7-7-7-5---5-5/7---7-7-7-5---5---------------------|
g--6---6-6-4-6-h6-4-----------7-----------------7---7--6-7-6------------|
d------------------------------------------------------------7-5--------|
a-----------------------------------------------------------------------|
e-----------------------------------------------------------------------|

   G           A
e-----------------------------------------------------------------------|
b--8-8-8-7-----8--------------------------------------------------------|
g----------9-7----6/7/6-------------------------------------------------|
d-----------------------7/9---------------------------------------------|
a-----------------------------------------------------------------------|
e-----------------------------------------------------------------------|


Bm                                     A
   All that's left in this brave new world
                               Dadd9
is thicking clocks and dancing girls
                            G
and broken heart to find another way to shut it all out
Bm                           A
  take some time in life to see
                             Dadd9
this point of view from your knees
                              G
electric hearts will play a song you've heard a thousand times

Bm   A   Dadd9   G
       a thousand times


Chorus:
         A          Bm               G
I won't let you win, let you see me cry
         A            Bm            G
I can't give you that satisfaction this time
              Bm             G
Do you really get what you need
             Bm      G
beating the hell of me?
                     Bm           G
you're never gonna spread your disease
              Bm          G
so take your hands off of me
         A           Bm          G
I'm so tired getting up off the floor
                      Dadd9
I won't take this anymore

Outro:
e-----0--------0-------------------------0-------0-------3-------|
b---3---3----3---3----2-3-2---2-3-2----3---3---3---3-----3-------|
g-2--------2--------2-------2--------4-------4-----------x-------|
d--------------------------------------------------------x-------|
a--------------------------------------------------------2-------|
e--------------------------------------------------------3-------|


Well that's it, I hope I didn't make to much mistakes
Enjoy
Hedley Rocks!
Tam
comments
print report bad tab
1 comment total.
0 reply
zazoupower wrote on November 17 2007, 12:08 am

great tab, but there's still some mistakes thougt
good jod:)

I want to post or [tab]
guest
You may want to rate the tab now too:
select rating
Please do not post tabs as comments. Select "correction" instead!