Oops, an error
Loading. Please wait.

Dying To Live Again Chords

version 2
version 2

Whole song

1,695 views 3 this week
no commentswrite comment
1 2 3 4 5
please rate
add to favorites
launch autoscroll
font size
0
reset
transpose
0
reset
display chords
guitar tuner
Autoscroll
slow
fast
+/-
esc
set tempo
stop
Help us to improve Ultimate-Guitar.com Take our survey!
×
Author
Difficulty
   The bridge still needs some work, but this is what I've got so far. If U know the 
leave comment plz.


e|------------------11---9---------------------11----9-----------------------|
B|-------6h7 -6-6-----------------6h7--6--6-----------------11--13---14--13--|
G|---------------------------------------------------------------------------|
D|---------------------------------------------------------------------------|
A|---------------------------------------------------------------------------|
E|---------------------------------------------------------------------------|

e|---------------------------------------------------------------------------|
B|-----11----------11--------------------------------------------------------|
G|----------13---------------------------------------------------------------|
D|-----------------------11---13---15---16--15----13---11--------------------|
A|---------------------------------------------------------------------------|
E|---------------------------------------------------------------------------|

  Verse 1


  F#
Tired of always saying sorry

                                  Bbm
Its just another fighting story


and i can barely walk a straight line

F#
Tired of learning life the hard way

                                   Ab
I wish that being strong was easy


but i want it more this time


  Prechorus

Bbm         Ab
I was wrong, its hard to say,

C#
at least i learn from my mistakes

Bbm            Ab   F#
I would change everything

Chorus

        C#                            Bbm
Cuz I cant wait for the day

                    F#
when finally i can say and you'll believe me

       Ab
I can change and now i mean it

    C#                  Bbm
and I, will fight for a way

                   F#
to make up for the mess that i've been leaving

         Ab                              Bbm
a second chance is all im needing and...

        Ab        C#                         Bbm
Anything i can do, just to make it up to you

           Ab         F#
I would do anything.. Im dying to live again

Repeat intro

e|------------------11---9---------------------11----9-----------------------|
B|-------6h7 -6-6-----------------6h7--6--6-----------------11--13---14--13--|
G|---------------------------------------------------------------------------|
D|---------------------------------------------------------------------------|
A|---------------------------------------------------------------------------|
E|---------------------------------------------------------------------------|

e|---------------------------------------------------------------------------|
B|-----11----------11--------------------------------------------------------|
G|----------13---------------------------------------------------------------|
D|-----------------------11---13---15---16--15----13---11--------------------|
A|---------------------------------------------------------------------------|
E|---------------------------------------------------------------------------|

Verse 2


F#
I was such a fool to hurt you


cuz your the one i always turn to

Bbm
when im goin out of my mind..

F#
i just bite the hand that feeds me


instead of loving ones that need me

Ab
but i want it more this time


prechorus

Bbm         Ab               C#                               
   Bbm
i was wrong, its hard to say, at least i've learned from my mistakes

               Ab    F#
i would change everything
        Ab        C#                         Bbm
Anything i can do, just to make it up to you

           Ab   F#
I would do anything..


Chorus

        C#                            Bbm
Cuz I cant wait for the day

                    F#
when finally i can say and you'll believe me

       Ab
I can change and now i mean it

    C#                  Bbm
and I, will fight for a way

                   F#
to make up for the mess that i've been leaving

         Ab                              Bbm
a second chance is all im needing and...

        Ab        C#                         Bbm
Anything i can do, just to make it up to you

           Ab         F#
I would do anything.. Im dying to live again

Bridge

E                              B
I pray that you'll see what I've become
A                                                B
I would give it all away to right the wrongs I've done
E                                               B
I don't wanna fall for the same mistakes again
A                                                 B
What's gonna take for this misery to end


        Ab        C#                         Bbm
Anything i can do, just to make it up to you

           Ab   F#             Ab
I would do anything..

Chorus

        C#                            Bbm
Cuz I cant wait for the day

                    F#
when finally i can say and you'll believe me

       Ab
I can change and now i mean it

    C#                  Bbm
and I, will fight for a way

                   F#
to make up for the mess that i've been leaving

         Ab                              Bbm
a second chance is all im needing and...

        Ab        C#                         Bbm
Anything i can do, just to make it up to you

           Ab         F#
I would do anything.. Im dying to live again
Suggest correction
Give kudos to tab author, rate the tab!
1 2 3 4 5
comments
print report bad tab
guest
You may want to rate the tab now too:
select rating
Please do not post tabs as comments. Select "correction" instead!