Oops, an error
Loading. Please wait.

For The Nights I Cant Remember Tab

16,050 views 1 this week
no commentswrite comment
1 2 3 4 5
x 3
add to favorites
launch autoscroll
font size
0
reset
how to read this tab
guitar tuner
Autoscroll
slow
fast
+/-
esc
set tempo
stop
Help us to improve Ultimate-Guitar.com Take our survey!
×
Difficulty
Tuning
intermediate
D A D G B E
Verse 1 - I see it in the way you would do
When no one else could ever get
back til I come around
Time and time again you wait for me to comin'
And did you
look my way?
Cuz no one coulda seen this coming
I would never let you 
I was running back working full time

          C     G    Am Em  F    C     F   G
E---------------------------|
B---------------------------|
G---5--------------5--------|  (x2)
D---5--5--7--2--3--5--3--5--|
A---3--5--7--2--3--3--3--5--|
D------5--7--2--3-----3--5--|

Bridge -So I can and I will and you'll see your hero come running
Over and over tonight

          F     C                    G
E-----------|--------|
B-----------|--------|
G------5----|--------|
D---3--5----|----5---|
A---3--3----|----5---|
D---3-------|----5---|
     (x3)

Chorus - And I do wanna love you
If you see me running back
And I do wanna
if falling for you girl is crazy
Then I'm going out of my mind
So hold back
tears this time
          F     C    G            Am  G     C     F   Am   G     F
E-------------|---------------------|
B-------------|---------------------|
G------5------|--------5------------|
D---3--5--5---|--7--5--5--3--7--5--3|
A---3--3--5---|--7--5--3--3--7--5--3|
D---3-----5---|--7--5-----3--7--5--3|
      (x2)

Verse 2 -Me, I'm used to being tired and bloody
But you believed that I could be
put your world on hold for me
Gave away to follow, feel you through the
need you to know I will
Believe me girl I'm so tired of running
I just wanna 
your hand
Stare at you like you've got everything I need

Bridge, Chorus

Break - And what if I never said to you I was dynamite
And what if I never told
I'm afraid to cry
What if I never let you down
And said I'm sorry for the
I can't remember
What if I never said to you I would try

         F       C    G             F     C             G
E-------------|---------|-----|
B-------------|---------|-----|
G------5------|-----5---|-----|
D---3--5--5---|--3--5---|--5--|
A---3--3--5---|--3--3---|--5--|
D---3-----5---|--3------|--5--|
      (x2)        (x3)

Chorus
Suggest correction
Give kudos to tab author, rate the tab!
1 2 3 4 5
comments
print report bad tab
guest
You may want to rate the tab now too:
select rating
Wanna post a correction for this tab? Suggest correction