Oops, an error
Loading. Please wait.

Gunnin Bass Tab

version 1
version 1

Whole song

Interactive

1,648 views 1 this week
1 commentread comment
1 2 3 4 5
accurate
x 3
add to favorites
launch autoscroll
font size
0
reset
guitar tuner
Autoscroll
slow
fast
+/-
esc
set tempo
stop
Help us to improve Ultimate-Guitar.com Take our survey!
×
Difficulty
intermediate
----------------------------------------------------------------------------
                          GUNNIN'  -  HEDLEY
---------------------------------------------------------------------------- 
Tabbed By: Hennebry
e-mail: mr.hazeleyes@hotmail.com
Tuning: Standard

Hey, This is my first tab. It is most likely totally incorect but it sounds
good to me. Yes I know that Tommy Mac plays 5-string bass but I only play
4-string so deal with it! Well Here it is, Enjoy!

Verse  (Don't play until 00:07)
G|--------------------------------------------------------------------|
D|--------------------------------------------------------------------|
A|--------------------------------------------------------------------|
E|------3~----3~----3~-----2~---2~---2~-------1~--1~--1~-----0~---0~0~|   2x
	Tell me...                            Broken..
Chorus
G|--------------------------------------------------------------------|
D|--------------------------------------------------------------------|
A|--3/7~------------------------------------------------3--3-3-3/7~---|
E|-------3~----3~----3~---2~---2~----2~-----0~------0~-------0~-------|
         Gunnin'...  For...                 For you....
G|--------------------------------------------------------------------|
D|--------------------------------------------------------------------|
A|---3~---3~----3~----2~----2~-----2~--------------------3-3-3-3/7~---|
E|-------------------------------------4~-----4~----4~----------------|
          Wait...     Write...       mySelf...
G|----------------------------------------------------------|
D|----------------------------------------------------------|
A|----------------------------------------------------------|
E|--3~----3~----3~-----2~-----2~-----2~-----1~-----|
                       Mornin'...           Alone...
Verse 2
G|---------------------------------------------------------------------|
D|---------------------------------------------------------------------|
A|---------------------------------------------------------------------|
E|---3~---3~---3~----2~---2~---2~----1~----1~----1~---0~----0~-----0~--|
     I hate...                       Broken...
G|----------------------------------------------------------------------|
D|----------------------------------------------------------------------|
A|---3~---3~----3~-----1~----1~-----1~----------------------------------|
E|--------------------------------------4~----4~----4~-----0~---0~---0~-|
     Perfection...                      Broken...

Chorus
G|--------------------------------------------------------------------|
D|--------------------------------------------------------------------|
A|--3/7~------------------------------------------------3--3-3-3/7~---|
E|-------3~----3~----3~---2~---2~----2~-----0~------0~-------0~-------|
         Gunnin'...  For...                 For you....
G|--------------------------------------------------------------------|
D|--------------------------------------------------------------------|
A|---3~---3~----3~----2~----2~-----2~--------------------3-3-3-3/7~---|
E|-------------------------------------4~-----4~----4~----------------|
          Wait...     Write...       mySelf...
G|----------------------------------------------------------|
D|----------------------------------------------------------|
A|----------------------------------------------------------|
E|--3~----3~----3~-----2~-----2~-----2~-----1~-----|
                       Mornin'...           Alone...


Bridge (Not sure what you call it)

G-----------------------------------------------------------------------|
D|----------------------------------------------------------------------|
A|----------------------------------------------------------------------|
E|---4~---4~---4~---2~---2~----2~---1~---1~---1~---3~---3~---3~---------|
     Feel...        Feel...         Take...

G|----------------------------------------------------------------------|
D|----------------------------------------------------------------------|
A|----------------------------------------------------------------------|
E|---4~---4~---4~---2~---2~---2~---1~---1~---1~---3~---3~---3~----------|
     Fight...       Never...       Part...        You...


G|------------------------------------------------------------------------|
D|------------------------------------------------------------------------|
A|---3~----3~---3~-----2~-----2~-----2~-----------------------------------|
E|---------------------------------------4~------4~-----4~------3-3-3-3/6~|
           Wait...                     mySelf...
G|------------------------------------------------------------------------|
D|------------------------------------------------------------------------|
A|------------------------------------------------------------------------|
E|--3~---3~---3~----2~----2~----2~----0~----0~----0~-----2~-----2~-----2~-|
         Find..                       Alone...
            
G|------------------------------------------------------------------------|
D|------------------------------------------------------------------------|
A|---3~----3~---3~-----2~-----2~-----2~-----------------------------------|
E|---------------------------------------4~------4~-----4~------3-3-3-3/6~|
           Wait...                     mySelf...
G|----------------------------------------------------|
D|----------------------------------------------------|
A|----------------------------------------------------|
E|--3~---3~---3~----2~----2~----2~----0~----0~----0~--|
         Find..                       Alone...


Thx for trying out my tab, plz rate!!!!!
Suggest correction
Give kudos to tab author, rate the tab!
1 2 3 4 5
comments
print report bad tab
1 comment total.
0 reply
hennebry 10 wrote on September 20 2007, 08:52 pm

lol i wrote this tab up almost a year ago and i bet it is COMPLETELY wrong

guest
You may want to rate the tab now too:
select rating
Wanna post a correction for this tab? Suggest correction