Oops, an error
Loading. Please wait.

Gunnin Bass Tab

version 2
version 2

Whole song

Interactive

406 views 1 this week
no commentswrite comment
1 2 3 4 5
please rate
add to favorites
launch autoscroll
font size
0
reset
guitar tuner
Autoscroll
slow
fast
+/-
esc
set tempo
stop
Help us to improve Ultimate-Guitar.com Take our survey!
×
Author
Difficulty
intermediate
Intro- no bass


Tell me what I'll never be ....
----------------------------------------------------------------|
----------------------------------------------------------------|
-3-3333-3333333-3-3333-33333333---------------------------------|
--------------------------------1-1111-1111111-1-1111-11111111--|  x2

And I'm gunnin' ....

----------------------------------------------------------------|
----------------------------------------------------------------|
-0-0000-0000000-0-0000-00000000---------------------------------|
--------------------------------3-3333-3333333-3-3333-3333333---|

----------------------------------------------------------------|
----------------------------------------------------------------|
----------------------------------------------------------------|
-1-1111-1111111-1-1111-1111111----------------------------------|

And I will wait ....

----------------------------------------------------------------|
----------------------------------------------------------------|
-3-3333-3333333-------------------------------------------------|
----------------3-3333-333333-1-1111-1111111-1-1111-1111111-----|

----------------------------------------------------------------|
----------------------------------------------------------------|
-3-3333-3333333-------------------------------------------------|
----------------3-3333-333333-1*****----------------------------|

I hate the way you look at me ...

----------------------------------------------------------------|
----------------------------------------------------------------|
-3-3333-3333333-3-3333-33333333---------------------------------|
--------------------------------1-1111-1111111-1-1111-11111111--| x2

And I'm gunnin' ....

----------------------------------------------------------------|
----------------------------------------------------------------|
-0-0000-0000000-0-0000-00000000---------------------------------|
--------------------------------3-3333-3333333-3-3333-3333333---|

----------------------------------------------------------------|
----------------------------------------------------------------|
----------------------------------------------------------------|
-1-1111-1111111-1-1111-1111111----------------------------------|

And I will wait ....

----------------------------------------------------------------|
----------------------------------------------------------------|
-3-3333-3333333-------------------------------------------------|
----------------3-3333-333333-1-1111-1111111-1-1111-1111111-----|

----------------------------------------------------------------|
----------------------------------------------------------------|
-3-3333-3333333-------------------------------------------------|
----------------3-3333-333333-1-1111-1111111-1-1111-1111111-----|

And I feel ....

----------------------------------------------------------------|
----------------------------------------------------------------|
-5-5555-5555555555-3-3333-3333333333----------------------------|
-------------------------------------8-8888-8888888888----------|

----------------------------------------------------------------|
----------------------------------------------------------------|
----------------------------------------------------------------|
-3-3333-3333333333----------------------------------------------|

And I'll fight you ....

----------------------------------------------------------------|
----------------------------------------------------------------|
-5-5555-5555555555-0-0000-0000000000----------------------------|
-------------------------------------1-1111-11111111111---------|

----------------------------------------------------------------|
----------------------------------------------------------------|
-8*****---------------------------------------------------------|
----------------------------------------------------------------|

And I will wait ....

----------------------------------------------------------------|
----------------------------------------------------------------|
-3-3333-3333333-------------------------------------------------|
----------------3-3333-333333-1-1111-1111111-1-1111-1111111-----|

----------------------------------------------------------------|
----------------------------------------------------------------|
-3-3333-3333333-------------------------------------------------|
----------------3-3333-333333-1-1111-1111111-1-1111-1111111-----| x2

------------------------------------------------------------------|
------------------------------------------------------------------|
-3-3333-3333333-10-10101010-10101010101010-8-8888-88888888888888--|
------------------------------------------------------------------| x2

the end no bass


The End, I hope you enjoyed :)
Suggest correction
Give kudos to tab author, rate the tab!
1 2 3 4 5
comments
print report bad tab
guest
You may want to rate the tab now too:
select rating
Please do not post tabs as comments. Select "correction" instead!