Oops, an error
Loading. Please wait.

Gunnin Tab

version 2
version 2

Whole song

Interactive

48,132 views 21 this week
21 commentsread comments
1 2 3 4 5
x 20
add to favorites
launch autoscroll
font size
0
reset
how to read this tab
guitar tuner
Autoscroll
slow
fast
+/-
esc
set tempo
stop
Help us to improve Ultimate-Guitar.com Take our survey!
×
This is pretty much 100% correct. I tabbed this from watching a concert video, which
means this is the live version. For the album version, all you need to do is change
the "C" in the chorus, to a "Cadd9".

Questions, comments e-mail kelly_kat13@hotmail.com
Enjoy!!!

Gunnin'
Hedley


Intro
       Asus2             Am   (h.o. the index finger to the first fret.)
e ----------------------------------------------------------------------------|
A ------------------------1---------------------------------------------------|
D -------2-----2------22222---------------------------------------------------|
G -------2-----2------22222---------------------------------------------------|
B ----------------------------------------------------------------------------|
E ----------------------------------------------------------------------------|


Verse:
          Cadd9                                      F
e ----------3----------------------------------------------------------------|
A ----------3----------------------------------------1-----------------------|
D ----------0----------------------------------------2-----------------------|
G ----------2--------------------------------------- 3-----------------------|
B ----------3----------------------------------------3-----------------------|
E ---------------------------------------------------------------------------|
            Tell me what ill never be make me feel broken


          Cadd9                                      F
e ----------3---------------------------------------------------------------|
A ----------3----------------------------------------1----------------------|
D ----------0----------------------------------------2----------------------|
G ----------2--------------------------------------- 3----------------------|
B ----------3----------------------------------------3----------------------|
E --------------------------------------------------------------------------|
  Tell me what I should believe, i didnt know i was broken


Pre Chorus
        Am               G                           F
e -----------------------3-----------------------------------------------|
A -------1---------------3---------------------------1-------------------|
D -------2---------------0---------------------------2-------------------|
G -------2---------------0---------------------------3-------------------|
B -----------------------2---------------------------3-------------------|
E -----------------------3-----------------------------------------------|
And im gunnin for       you          im gunnin       for you


Chorus
    F        C              G                        F             h.o F
e --------------------------3-----------------------------------------------|
A --1--------1--------------3------------------------1-------------1--------|
D --2--------0--------------0------------------------2---------22222--------|
G --3--------2--------------0------------- ----------3---------33333--------|
B --3--------3--------------2------------------------3---------33333--------|
E -----------3--------------3-----------------------------------------------|
And I will    wait ill write another letter to myself……………..


    F        C              G                        F
e --------------------------3--------------------------------------------|
A --1--------1--------------3------------------------1-------------1-----|
D --2--------0--------------0------------------------2---------22222-----|
G --3--------2--------------0------------- ----------3---------33333-----|
B --3--------3--------------2------------------------3---------33333-----|
E------------3--------------3--------------------------------------------|
And I will    find out that morning comes faster alone. (ring out)


Verse 2
-- the same--


pre chorus
-- the same-


Chorus
    F        C              G                        F
e --------------------------3-----------------------------------------------|
A --1--------1--------------3------------------------1-------------1--------|
D --2--------0--------------0------------------------2---------22222--------|
G --3--------2--------------0------------- ----------3---------33333--------|
B --3--------3--------------2------------------------3---------33333--------|
E -----------3--------------3-----------------------------------------------|
And I will        wait ill write another letter to myself…………



    F        C              G                          F (keep strumming)
e --------------------------3-----------------------------------------------|
A --1--------1--------------3--------------------------1--------------------|
D --2--------0--------------0--------------------------2--------------------|
G --3--------2--------------0------------- ------------3--------------------|
B --3--------3--------------2--------------------------3--------------------|
E -----------3--------------3-----------------------------------------------|
And I will  find out that morning comes faster alone


Bridge
        Am                   F                  C                  G
e -----------------------------------------------------------------3-------|
A -------1-------------------1------------------1------------------3-------|
D -------2-------------------2------------------0------------------0-------|
G -------2-------------------3------------------2------------------0-------|
B ---------------------------3------------------3------------------2-------|
E ----------------------------------------------3------------------3-------|
And I feel like im fine today I feel like im..    take this on

        Am                Em                    C                  F
e ---------------------------------------------------------------------------|
A -------1--------------------------------------1------------------1---------|
D -------2--------------------------------------0------------------2---------|
G -------2-----------------2--------------------2------------------3---------|
B -------------------------2--------------------3------------------3---------|
E ----------------------------------------------3----------------------------|
And ill fight you to the.. ill never let you take apart of me with you


Chorus

    F        C              G                        F
e --------------------------3-----------------------------------------------|
A --1--------1--------------3------------------------1-------------1--------|
D --2--------0--------------0------------------------2---------22222--------|
G --3--------2--------------0------------- ----------3---------33333--------|
B --3--------3--------------2------------------------3---------33333--------|
E -----------3--------------3-----------------------------------------------|
And I will        wait ill write another letter to myself……………..


    F        C              G                        F
e --------------------------3--------------------------------------|
A --1--------1--------------3------------------------1-------------|
D --2--------0--------------0------------------------2-------------|
G --3--------2--------------0------------- ----------3-------------|
B --3--------3--------------2------------------------3-------------|
E -----------3--------------3--------------------------------------|
And I will   find out that morning comes faster alone.

    F        C              Am                          Am          F
e ---------------------------------------------------------------------------|
A --1--------1------------------------------------------1-----------1--------|
D --2--------0------------------------------------------2-----------2--------|
G --3--------2--------------2--------- -----------------2-----------3--------|
B --3--------3--------------2---------------------------------------3--------|
E -----------3--------------2------------------------------------------------|
And I will    wait ill write another letter to myself….. uh oh


    F        C              G
e --------------------------3-------------------------------------------|
A --1--------1--------------3------------------------1------------------|
D --2--------0--------------0------------------------2------------------|
G --3--------2--------------0------------- ----------3------------------|
B --3--------3--------------2------------------------3------------------|
E -----------3--------------3-------------------------------------------|
And I will   find out that morning comes faster alone. (ring out)


outro

          Cadd9                                      F                 h.o.
e ----------3---------------------------------------------------------------|
A ----------3----------------------------------------1-------------------1--|
D ----------0----------------------------------------2---------------22222--|
G ----------2--------------------------------------- 3---------------33333--|
B ----------3----------------------------------------3---------------33333--|
E --------------------------------------------------------------------------|
 The perfection of my frailty has been questions and broken (ring out)
Suggest correction
comments
print report bad tab
21 comments total. Showing first comments.
0 reply
ShiftyNermal 82 Feb 08, 2006 08:39 PM

Good Tab. Hedley are awsome live!

0 reply
boyan89 812 Mar 16, 2006 01:32 PM

im going 2 their concert in Ottawa on March 18th YEAH!!!!!!!!!

0 reply
boyan89 812 Mar 16, 2006 01:32 PM

even though ive seem them live @ the simple plan concert but still good tab and do some more if u can plz

guest
You may want to rate the tab now too:
select rating
Wanna post a correction for this tab? Suggest correction