Oops, an error
Loading. Please wait.

I Dont Beleive It Tab

330 views 1 this week
no commentswrite comment
1 2 3 4 5
please rate
add to favorites
launch autoscroll
font size
0
reset
how to read this tab
guitar tuner
Autoscroll
slow
fast
+/-
esc
set tempo
stop
Help us to improve Ultimate-Guitar.com Take our survey!
×
Author
Hedley
I Don't Believe It
Tabbed By: Grant Tingstad
Tuning - Standard: EADGBE

This is an easy song to play, and I have everything.
All verses and riffs, all notes, solo.
foxybirdy@hotmail.com

Legend:
/ Slide Up
\ Slide Down
. Palm Mute
b Bend
p pull off
h hammer on
Intro:
E[--------------------------------------------]
B[--------------------------------------------]
G[------------------33333333------------------]
D[-33333333/5555555533333333------------------]
A[-33333333/55555555111111111/8--888----------]
E[-11111111/33333333--------------------------]

E[--------------------------------------------]
B[--------------------------------------------]
G[--------------------------------------------]
D[----------------------------8887771010------]
A[-8888888810p888888812p888888----------------]
E[--------------------------------------------]

E[--------------------------------------------]
B[--------------------------------------------]
G[--------------------------------------------]
D[--------------------------------------------]
A[-8888888810p888888812p88888888-888----------] 
E[--------------------------------------------]

Verse 1:
 Only Bass first time through. Bass plays:
G[-------------------------------------]
D[-------------------------------------]
A[-------------------11111111-33333333-]
E[-11111111-33333333-------------------]

 Then Guitar:
E[----------------------------------------------]
B[----------------------------------------------]
G[------------------33333333-55555555-----------]
D[-33333333/5555555533333333/55555555-----------]
A[-33333333/5555555511111111/33333333-----------]
E[-11111111/33333333----------------------------]
 PM........ ........ ........ ........

Pre-Chorus
E[---------------------]
B[---------------------]
G[-7-7-7-7--3-3-3-3----]
D[-7-7-7-7--3-3-3-3----]
A[-5-5-5-5--1-1-1-1----] (x3)
E[---------------------]
 PM. . . .  . . . .

E[---------------------------------------]
B[---------------------------------------]
G[-7-7-77----(let-ring)------------------]
D[-7-7-77--3-----------------------------]
A[-5-5-55--3---------------3-5-6-6-5\----]
E[---------1-----------------------------]
 PM. . ..

Chorus:
E[----------------------------------]
B[----------------------------------]
G[-10101010/14141414\12121212\9999/-]
D[-10101010/14141414\12121212\9999/-]
A[-8-8-8-8-/12121212\10101010\7777/-] (x2)
E[----------------------------------]

E[--------------------------------------------------]
B[--------------------------------------------------]
G[-7-777777-8-888888--------------------------------]
D[-7-777777-8-888888--------------------------------]
A[-5-555555-6-666666------1-----1-----1-----1-----1-]
E[--------------------1-0---1-0---1-0---1-0---1-0---]

Post Chorus:
E[----------------------------------]
B[----------------------------------]
G[-10101010/14141414\12121212\9999/-]
D[-10101010/14141414\12121212\9999/-]
A[-8-8-8-8-/12121212\10101010\7777/-]
E[----------------------------------]

E[------------------------------------]
B[------------------------------------]
G[-10101010/14141414\12121212\9999/10-]
D[-10101010/14141414\12121212\9999/10-] (let ring)
A[-8-8-8-8-/12121212\10101010\7777/8--]
E[------------------------------------]

Verse 2:
 Bass Again:
G[-------------------------------------]
D[-------------------------------------]
A[-------------------11111111-33333333-]
E[-11111111-33333333-------------------]

 Then Guitar:
E[-----------------------------------------------]
B[-----------------------------------------------]
G[-------------------33333333/55555555-----------]
D[-33333333/55555555/33333333/55555555-----------]
A[-33333333/55555555/11111111/33333333-----------]
E[-11111111/33333333/----------------------------]
 PM........ ........ ........ ........

Pre-Chorus:
E[------------------------------------------------------------------]
B[------------------------------------------------------------------]
G[-7-7-7-7--3-3-3-3--7-7-7-7--3-3-5-5—-7-7-7-7—¬-3-3-3-3--5-5-5-5----]
D[-7-7-7-7--3-3-3-3--7-7-7-7--3-3-5-5—-7-7-7-7—-3-3-3-3—-5-5-5-5—-3-]
A[-5-5-5-5--1-1-1-1--5-5-5-5—-1-1-3-3—-5-5-5-5--1-1-1-1—-5-5-5-5—-3-]
E[----------------------------------------------------------------1-]
 PM. . . .  . . . .

E[---------------------------------------]
B[---------------------------------------]
G[-7-7-77----(let-ring)------------------]
D[-7-7-77--3-----------------------------]
A[-5-5-55--3---------------3-5-6-6-5\----]
E[---------1-----------------------------]
 PM. . ..

Chorus:
E[----------------------------------]
B[----------------------------------]
G[-10101010/14141414\12121212\9999/-]
D[-10101010/14141414\12121212\9999/-]
A[-8-8-8-8-/12121212\10101010\7777/-] (x2)
E[----------------------------------]

E[--------------------------------------------------]
B[--------------------------------------------------]
G[-7-7-7-77-8-8-8-88--------------------------------]
D[-7-7-7-77-8-8-8-88--------------------------------]
A[-5-5-5-55-6-6-6-66------1-----1-----1-----1-----1-]
E[--------------------1-0---1-0---1-0---1-0---1-0---]

Post Chorus:
E[----------------------------------]
B[----------------------------------]
G[-10101010/14141414\12121212\9999/-]
D[-10101010/14141414\12121212\9999/-]
A[-8-8-8-8-/12121212\10101010\7777/-]
E[----------------------------------]

E[---------------------------------]
B[---------------------------------]
G[-10101010/14141414\12121212\9999-]
D[-10101010/14141414\12121212\9999-]
A[-8-8-8-8-/12121212\10101010\7777-]
E[---------------------------------]

Solo:
E[---0h1p0------0h1p0-------------------------------------]
B[--------------------------------------------------------]
G[--2------22/3-------33/5-55-55-55-55555-----------------]
D[--------------------------------------------------------]
A[--------------------------------------------------------]
E[--------------------------------------------------------]
Solo:
E[------------------------------------------------------------------]
B[-------------------------------------1311-11-11b-----1311-11-11b -]
G[--22222222/33333333/5555555555555555------------------------------]
D[-------------------------------------------------1010-------------]
A[------------------------------------------------------------------]
E[------------------------------------------------------------------]

Bridge:
E[--------------------------------------------------]
B[--------------------------------------------------]
G[----------55555555----------55555555--------------]
D[-77777777-55555555-77777777-55555555--------------]
A[-77777777-33333333-77777777-33333333--------------]
E[-55555555----------55555555-----------------------]

E[--------------------------------------------------]
B[--------------------------------------------------]
G[-77777777----------77777777/8---------------------]
D[-77777777-88888888-77777777/8-(let ring)----------]
A[-55555555-88888888-55555555/6---------------------]
E[----------66666666--------------------------------]

Chorus:
E[----------------------------------]
B[----------------------------------]
G[-10101010/14141414\12121212\9999/-]
D[-10101010/14141414\12121212\9999/-]
A[-8-8-8-8-/12121212\10101010\7777/-] (x4)
E[----------------------------------]

E[-------------------]
B[-------------------]
G[-7-777777-8-888888-]
D[-7-777777-8-888888-]
A[-5-555555-6-666666-] (x2)
E[-------------------]

E[--------------------------------------------------]
B[--------------------------------------------------]
G[-7-777777-8-888888--------------------------------]
D[-7-777777-8-888888--------------------------------]
A[-5-555555-6-666666------1-----1-----1-----1-----1-]
E[--------------------1-0---1-0---1-0---1-0---1-0---]

Outro:
E[----------------------------------]
B[----------------------------------]
G[-10101010/14141414\12121212\9999/-]
D[-10101010/14141414\12121212\9999/-]
A[-8-8-8-8-/12121212\10101010\7777/-] (x3)
E[----------------------------------]

E[------------------------------]
B[------------------------------]
G[-10101010/14141414\1212121212-]
D[-10101010/14141414\1212121212-] (mute end note)
A[-8-8-8-8-/12121212\1010101010-]
E[------------------------------]
Suggest correction
Give kudos to tab author, rate the tab!
1 2 3 4 5
comments
print report bad tab
guest
You may want to rate the tab now too:
select rating
Wanna post a correction for this tab? Suggest correction