Oops, an error
Loading. Please wait.

I Dont Believe It Tab

version 2
version 2

Whole song

1,202 views 1 this week
no commentswrite comment
1 2 3 4 5
1 last vote to show rating
add to favorites
launch autoscroll
font size
0
reset
how to read this tab
guitar tuner
Autoscroll
slow
fast
+/-
esc
set tempo
stop
Help us to improve Ultimate-Guitar.com Take our survey!
×
Author
Difficulty
novice
Hedley
I Don't Believe It
Tabbed By: Jeremy Waterman
Tuning - Standard: EADGBE

This is an easy song to play, and I have everything.
All verses and riffs, all notes, solo.
infectedwithyou@hotmail.com

Legend:
/ Slide Up
\ Slide Down
. Palm Mute
b Bend

Intro:
E[--------------------------------------------]
B[--------------------------------------------]
G[---------------------------/1010-1010101010-]
D[-33333333/55555555/88888888/1010-1010101010-]
A[-33333333/55555555/88888888/8-8--8-8-8-8-8--]
E[-11111111/33333333/66666666/----------------]

E[--------------------------------------------]
B[--------------------------------------------]
G[--------------------------------------------]
D[-33333333/55555555/88888888/101010\8-/10----]
A[-33333333/55555555/88888888/101010\8-/10----] (x2)
E[-11111111/33333333/66666666/8-8-8-\6-/8-----]

Verse 1:
 Only Bass first time through. Bass plays:
G[-------------------------------------]
D[-------------------------------------]
A[-------------------11111111-33333333-]
E[-11111111-33333333-------------------]

 Then Guitar:
E[-----------------------------------------------]
B[-----------------------------------------------]
G[-----------------------------------------------]
D[-33333333/55555555/88888888/10101010--10-10-10-]
A[-33333333/55555555/88888888/10101010--10-10-10-]
E[-11111111/33333333/66666666/8-8-8-8---8--8--8--]
 PM........ ........ ........ ........

Pre-Chorus
E[---------------------]
B[---------------------]
G[-7-7-7-7--3-3-3-3----]
D[-7-7-7-7--3-3-3-3----]
A[-5-5-5-5--1-1-1-1----] (x3)
E[---------------------]
 PM. . . .  . . . .

E[---------------------------------------]
B[---------------------------------------]
G[-7-7-77--3-(let-ring)------------------]
D[-7-7-77--3-----------------------------]
A[-5-5-55--1---------------3-5-6-6-5\----]
E[---------------------------------------]
 PM. . ..

Chorus:
E[----------------------------------]
B[----------------------------------]
G[-10101010/14141414\12121212\9999/-]
D[-10101010/14141414\12121212\9999/-]
A[-8-8-8-8-/12121212\10101010\7777/-] (x2)
E[----------------------------------]

E[--------------------------------------------------]
B[--------------------------------------------------]
G[-7-777777-8-888888--------------------------------]
D[-7-777777-8-888888--------------------------------]
A[-5-555555-6-666666------3-----3-----3-----3-----3-]
E[--------------------1-0---1-0---1-0---1-0---1-0---]

Post Chorus:
E[----------------------------------]
B[----------------------------------]
G[-10101010/14141414\12121212\9999/-]
D[-10101010/14141414\12121212\9999/-]
A[-8-8-8-8-/12121212\10101010\7777/-]
E[----------------------------------]

E[------------------------------------]
B[------------------------------------]
G[-10101010/14141414\12121212\9999/10-]
D[-10101010/14141414\12121212\9999/10-] (let ring)
A[-8-8-8-8-/12121212\10101010\7777/8--]
E[------------------------------------]

Verse 2:
 Bass Again:
G[-------------------------------------]
D[-------------------------------------]
A[-------------------11111111-33333333-]
E[-11111111-33333333-------------------]

 Then Guitar:
E[-----------------------------------------------]
B[-----------------------------------------------]
G[-----------------------------------------------]
D[-33333333/55555555/88888888/10101010--10-10-10-]
A[-33333333/55555555/88888888/10101010--10-10-10-]
E[-11111111/33333333/66666666/8-8-8-8---8--8--8--]
 PM........ ........ ........ ........

Pre-Chorus:
E[---------------------]
B[---------------------]
G[-7-7-7-7--3-3-3-3----]
D[-7-7-7-7--3-3-3-3----]
A[-5-5-5-5--1-1-1-1----] (x3)
E[---------------------]
 PM. . . .  . . . .

E[---------------------------------------]
B[---------------------------------------]
G[-7-7-77--3-(let-ring)------------------]
D[-7-7-77--3-----------------------------]
A[-5-5-55--1---------------3-5-6-6-5\----]
E[---------------------------------------]
 PM. . ..

Chorus:
E[----------------------------------]
B[----------------------------------]
G[-10101010/14141414\12121212\9999/-]
D[-10101010/14141414\12121212\9999/-]
A[-8-8-8-8-/12121212\10101010\7777/-] (x2)
E[----------------------------------]

E[--------------------------------------------------]
B[--------------------------------------------------]
G[-7-777777-8-888888--------------------------------]
D[-7-777777-8-888888--------------------------------]
A[-5-555555-6-666666------3-----3-----3-----3-----3-]
E[--------------------1-0---1-0---1-0---1-0---1-0---]

Post Chorus:
E[----------------------------------]
B[----------------------------------]
G[-10101010/14141414\12121212\9999/-]
D[-10101010/14141414\12121212\9999/-]
A[-8-8-8-8-/12121212\10101010\7777/-]
E[----------------------------------]

E[---------------------------------]
B[---------------------------------]
G[-10101010/14141414\12121212\9999-]
D[-10101010/14141414\12121212\9999-]
A[-8-8-8-8-/12121212\10101010\7777-]
E[---------------------------------]

Solo:
E[--------------------------------------------------------]
B[--------------------------------------------------------]
G[------9b--------9b--------------------------------------]
D[--7-7----7--8-8----8--10-101010101010101010101010101010-]
A[--------------------------------------------------------]
E[--------------------------------------------------------]

E[----------------------------------------------------]
B[------------------------1311-11-11b-----1311-11-11b-]
G[----------------------------------------------------]
D[--777777778-8888888-1010------------1010------------]
A[----------------------------------------------------]
E[----------------------------------------------------]

Bridge:
E[--------------------------------------------------]
B[--------------------------------------------------]
G[--------------------------------------------------]
D[--------------------------------------------------]
A[-8-8------\3-3------/1212------\1010--------------]
E[--------------------------------------------------]

E[-----------------------------------------------------]
B[-----------------------------------------------------]
G[-----------------------------------------------------]
D[-------------------------------(let-ring)------------] (mute last 6)
A[-888888888\33333333/8888888/10-------------3/5/66----]
E[-----------------------------------------------------]

Chorus:
E[----------------------------------]
B[----------------------------------]
G[-10101010/14141414\12121212\9999/-]
D[-10101010/14141414\12121212\9999/-]
A[-8-8-8-8-/12121212\10101010\7777/-] (x4)
E[----------------------------------]

E[-------------------]
B[-------------------]
G[-7-777777-8-888888-]
D[-7-777777-8-888888-]
A[-5-555555-6-666666-] (x2)
E[-------------------]

E[--------------------------------------------------]
B[--------------------------------------------------]
G[-7-777777-8-888888--------------------------------]
D[-7-777777-8-888888--------------------------------]
A[-5-555555-6-666666------3-----3-----3-----3-----3-]
E[--------------------1-0---1-0---1-0---1-0---1-0---]

Outro:
E[----------------------------------]
B[----------------------------------]
G[-10101010/14141414\12121212\9999/-]
D[-10101010/14141414\12121212\9999/-]
A[-8-8-8-8-/12121212\10101010\7777/-] (x3)
E[----------------------------------]

E[------------------------------]
B[------------------------------]
G[-10101010/14141414\1212121212-]
D[-10101010/14141414\1212121212-] (mute end note)
A[-8-8-8-8-/12121212\1010101010-]
E[------------------------------]
Suggest correction
Give kudos to tab author, rate the tab!
1 2 3 4 5
comments
print report bad tab
guest
You may want to rate the tab now too:
select rating
Wanna post a correction for this tab? Suggest correction