Oops, an error
Loading. Please wait.

Johnny Falls Tab

version 2
version 2

Whole song

1,570 views 1 this week
1 commentread comment
1 2 3 4 5
1 last vote to show rating
add to favorites
launch autoscroll
font size
0
reset
how to read this tab
guitar tuner
Autoscroll
slow
fast
+/-
esc
set tempo
stop
Help us to improve Ultimate-Guitar.com Take our survey!
×
Author
Difficulty
intermediate
this is a song on guitar
cool                      D=down strum  U=up strum

intro/verse:

------------------------------------------------------------|
------------------------------------------------------------|
------------------------------------------------------------|
------------------------------------------------------------|x2
------------------------------------------------------------|
-8-8-8-8-8-8-8-8---6-6-6-6-6-6---3-3-3-3-3-3---4-4-4-4-4-4--|

------------------------------------------------------------|
------------------------------------------------------------|
------------------------------------------------------------|
-10-10-10-8--8-8-8-5--5-5-5-5--6-6-6-6----------------------|x2
-10-10-10-8--8-8-8-5--5-5-5-5--6-6-6-6----------------------|
--8--8--8-6--6-6-6-3--3-3-3-3--4-4-4-4----------------------|
  d  d  d u  d d d u  d d d u  d d d u

chorus:

------------------------------------------------------------|
------------------------------------------------------------|
------------------------------------------------------------|
10-10-10---x-x-8-8-8-8-8--10-10-10-10-10--6-6-6-6-6---------|
10-10-10---x-x-8-8-8-8-8--10-10-10-10-10--6-6-6-6-6---------|
-8--8--8---x-x-6-6-6-6-6---8--8--8--8--8--4-4-4-4-4---------|
 d  d  d   d u d d d u d   d  d  d  u  d  d d d u d
------------------------------------------------------------|
------------------------------------------------------------|
------------------------------------------------------------|
-10-10-10-10-10--8-8-8-8-8--5-5-5-5-5--6-6-6-6-6------------|
-10-10-10-10-10--8-8-8-8-8--5-5-5-5-5--6-6-6-6-6------------|
--8--8--8--8--8--6-6-6-6-6--3-3-3-3-3--4-4-4-4-4------------|
  d  d  d  u  d  d d d u d  d d d u d  d d d u d

verse 2:

---------------------------------------------------------------|
---------------------------------------------------------------|
---------------------------------------------------------------|
------------------------------------------------------------10-|
------------------------------------------------------------10-|
-8-8-8-8-8-8-8-8---6-6-6-6-6-6---3-3-3-3-3-3---4-4-4-4-4-4---8-|

------------------------------------------------------------|
------------------------------------------------------------|
------------------------------------------------------------|
------------------------------------------------------------|
------------------------------------------------------------|
-8-8-8-8-8-8-8-8---6-6-6-6-6-6---3-3-3-3-3-3---4-4-4-4-4-4--|

------------------------------------------------------------|
------------------------------------------------------------|
------------------------------------------------------------|
-10-10-10-8--8-8-8-5--5-5-5-5--6-6-6-6----------------------|x2
-10-10-10-8--8-8-8-5--5-5-5-5--6-6-6-6----------------------|
--8--8--8-6--6-6-6-3--3-3-3-3--4-4-4-4----------------------|
  d  d  d u  d d d u  d d d u  d d d u


chorus:

---------------------------------------------------------------|
---------------------------------------------------------------|
---------------------------------------------------------------|
10-10-10-10-10---8-8-8-8-8--10-10-10-10-10--6-6-6-6-6----------|
10-10-10-10-10---8-8-8-8-8--10-10-10-10-10--6-6-6-6-6----------|
-8--8--8--8--8---6-6-6-6-6---8--8--8--8--8--4-4-4-4-4----------|
 d  d  d  u  d   d d d u d   d  d  d  u  d  d d d u d
------------------------------------------------------------|
------------------------------------------------------------|
------------------------------------------------------------|
-10-10-10-10-10--8-8-8-8-8--5-5-5-5-5--6-6-6-6-6------------|
-10-10-10-10-10--8-8-8-8-8--5-5-5-5-5--6-6-6-6-6------------|
--8--8--8--8--8--6-6-6-6-6--3-3-3-3-3--4-4-4-4-4------------|
  d  d  d  u  d  d d d u d  d d d u d  d d d u d


------------------------------------------------------------|
------------------------------------------------------------|
-8-8-8-8-8-----------------------------13-13-13--12-12-12---|
-8-8-8-8-8--8-8-8-8-8--10-10-10-10-10--13-13-13--12-12-12---|
-6-6-6-6-6--8-8-8-8-8--10-10-10-10-10--11-11-11--10-10-10---|
------------6-6-6-6-6---8--8--8--8--8-----------------------|


----------------------------------------------------------------|
----------------------------------------------------------------|
-8-8-8-8-8-----------------------------13-13-13--0--0--0-15-15--|
-8-8-8-8-8--8-8-8-8-8--10-10-10-10-10--13-13-13-13-13-13-13-13--|
-6-6-6-6-6--8-8-8-8-8--10-10-10-10-10--11-11-11-11-11-11-11-11--|
------------6-6-6-6-6---8--8--8--8--8---------------------------|

----------------------------------------------------------------|
----------------------------------------------------------------|
-8-7-8---8-7-8---8-7-8---8-12-12-10-10-8-8----------------------|
-------8-------8-------8----------------------------------------|
----------------------------------------------------------------|
----------------------------------------------------------------|

----------------------------------------------------------------|
----------------------------------------------------------------|
8-7-8---8-7-8---8-7-8-10-10-strech that string alot-------------|
-------8-------8------------------------------------------------|
----------------------------------------------------------------|
----------------------------------------------------------------|



------------------------------------------------------------------|
------------------------------------------------------------------|
------------------------------------------------------------------|
---8---8---8---8---8---10---10---10---10---10---8---8---8---8---8-|
-6---6---6---6---6---8----8----8----8----8----6---6---6---6---6---|
------------------------------------------------------------------|

----------------------------------------------------------------------------|
----------------------------------------------------------------------------|
----------------------------------------------------------------------------|
---8---8---8---8---8---10---10---10---10---10----12----12----12----12----12-|
-6---6---6---6---6---8----8----8----8----8----10----10----10----10----10----|
----------------------------------------------------------------------------|


----------------------------------------------------------------------------|
----------------------------------------------------------------------------|
----------------------------------------------------------------------------|
---8---8---8---8---8---10---10---10---10---10----12----12----12----12----12-|
-6---6---6---6---6---8----8----8----8----8----10----10----10----10----10----|
----------------------------------------------------------------------------|

                                                              delay off
----------------------------------------------------------------|-----------|
----------------------------------------------------------------|-----------|
----------------------------------------------------------------|12---1313--|
---8---8---8---8---8---10---10---10---10---10----12----12----12-|12x5-1313--|
-6---6---6---6---6---8----8----8----8----8----10----10----10----|10---1111--|
----------------------------------------------------------------|-----------|

chorus:

---------------------------------------------------------------|
---------------------------------------------------------------|
---------------------------------------------------------------|
10-10-10-10-10---8-8-8-8-8--10-10-10-10-10--6-6-6-6-6----------|
10-10-10-10-10---8-8-8-8-8--10-10-10-10-10--6-6-6-6-6----------|
-8--8--8--8--8---6-6-6-6-6---8--8--8--8--8--4-4-4-4-4----------|
 d  d  d  u  d   d d d u d   d  d  d  u  d  d d d u d
------------------------------------------------------------|
------------------------------------------------------------|
------------------------------------------------------------|
-10-10-10-10-10--8-8-8-8-8--5-5-5-5-5--6-6-6-6-6------------|
-10-10-10-10-10--8-8-8-8-8--5-5-5-5-5--6-6-6-6-6------------|
--8--8--8--8--8--6-6-6-6-6--3-3-3-3-3--4-4-4-4-4------------|
  d  d  d  u  d  d d d u d  d d d u d  d d d u d

----------------------------------------------------------------|
----------------------------------------------------------------|
-8-7-8---8-7-8---8-7-8---8-12-12-10-10-8-8----------------------|
-------8-------8-------8----------------------------------------|alot
----------------------------------------------------------------|
----------------------------------------------------------------|

----------------------------------------------------------------|
----------------------------------------------------------------|
8-7-8---8-7-8---8-7-8-10-10-strech that string alot-------------|
-------8-------8------------------------------------------------|
----------------------------------------------------------------|
----------------------------------------------------------------|

all dun
hope u like it
Suggest correction
Give kudos to tab author, rate the tab!
1 2 3 4 5
comments
print report bad tab
1 comment total.
0 reply
Let It RIde 10 Aug 11, 2006 04:54 PM

The verse is not bad. The first bit of the chorus is all over the place. Ive changed it so it sounds better. I think if you were to use the verse chords, in the chorus, it works better.

Some minor adjusments, but i think its easy enough for others to figure out themselves.
Good job getting it started!

guest
You may want to rate the tab now too:
select rating
Wanna post a correction for this tab? Suggest correction