Oops, an error
Loading. Please wait.

Never Too Late bass

version 1
version 1

Whole song

Interactive

by Hedley
3,026 views 1 this week
1 commentread comment
1 2 3 4 5
x 4
add to favorites
×
Save as Personal and add changes to this tab that will be seen only by you. Learn more ›
×
You can save this tab as Personal to edit and correct it or add notes. All changes will be seen only by you. Learn more »
launch autoscroll
font size
0
reset
guitar tuner
edit
Autoscroll
slow
fast
+/-
esc
set tempo
stop
Difficulty
intermediate
----------------------------------------------------------------------------
                          NEVER TOO LATE - Hedley
----------------------------------------------------------------------------

Tabbed By : dEironman
e-mail: miamidolphins1972@hotmail.com

Tuning: Standard


PRE-CHORUS (0:34)
G|------------------------------------------------------------------------|
D|------------------------------------------------------------------------|
A|-4-4-4-----------------------------4-4-4----------------------6-9-------|
E|--------7-7-7-7--5-5-5--7-7-7-7--7--------7-7-7--5-5-5-5--7-7-----------|

CHORUS (0:51)              \/(Play the 7 down an octave second time, open E)
G|---------------------------------------------------||
D|-----6-9-----------------------------------1-------||
A|-7-7------6-6-9--------4-7--4-4-9----2-2-----------|| X2
E|----------------7--5-5------------5------2---------||

G|---------------------------------------------------|
D|---------------------------------------------------|
A|-----------------4444------------------------------|
E|-2222222255555555----7777555577775-----------------|

VERSE (1:19)
G|-------------------------------------------------------------|
D|------------------------------------6-9----------------------|
A|-7-9-7------------7-9------6-9--7-7------6-9-6---------------|
E|-------9-7-9--5-5------7-7---------------------7-9-----------|

G|----------------------------------------------------------------|
D|-----------------------6-9--------------------------------------|
A|-----4-7------6-9--7-7------6-9-6----------4-7------6-9---------|
E|-5-5------7-7---------------------7-9--5-5------7-7-------------|

PRE-CHORUS (1:42)
G|-----------------------------------------------|
D|-----------------------------------------------|
A|-4-4-4-----------------------------4-4-4-------|
E|--------7-7-7-7--5-5-5--7-7-7-7--7-------------|

G|-----------------------------------------|
D|-----------------------------------------|
A|-7-7-7-7--7--------------------6-9-------|
E|------------5-5-5-5--7--7--7-7-----------|

CHORUS (1:58)
G|---------------------------------------------------||
D|-----6-9-----------------------------------1-------||
A|-7-7------6-6-9--------4-7--4-4-9----2-2-----------|| X2
E|----------------7--5-5------------5------2---------||

G|---------------------------------------------------|
D|---------------------------------------------------|
A|-----------------4444------------------------------|
E|-2222222255555555----7777555577775-----------------|

SOLO (2:22)
G|--------------------------------------|
D|--------------------------------------|
A|-7--9--5---7------7--9--5-------------|
E|---------5----9-7---------5-0---------|

PAUSE TILL (2:47)

BRIDGE
G|---------------------|
D|---------------------|
A|-------5---7---------|
E|-0--2----5-----------|

G|-------------------------------------------------||
D|-----6--------8--------4-7-----------6-----------|| \
A|-7-7---7--9-9---9--5-5---------4-7-7---7---------||  \
E|---------------------------5-5-------------------||   \
                                                          X2
G|-------------------------------------------------||   /
D|-----6--------8--------4-------------------------||  /
A|-7-7---7--9-9---9--5-5---5------4---7------------|| /
E|----------------------------5-5---5--------------||

G|-------------------------------------------------|
D|-----6--------8--------4-7-----------6-----------|
A|-7-7---7--9-9---9--5-5---------4-7-7---7---------|
E|---------------------------5-5-------------------|

G|---------------------------------------------------------------|
D|-----6--------8---------------------12-14-14-12----------------|
A|-7-7---7--9-9---9--5-----7--10-12-14-------------14-12-10-7----|
E|----------------------5----------------------------------------|

This is my first tab so if you have any corrections or comments
please feel free to email me at miamidolphins1972@hotmail.com
Thank You!

            
            
Suggest correction
Creating personal tab
Creating personal tab
You can edit any tab online and save it as your Personal.

You can edit, replace or remove any tab part or add personal notes – all changes will be seen only by you.

Personal tabs can be accessed anytime from any device, even offline.
Learn more »
comments
print report bad tab
1 comment total.
0 reply
dEironman 10 Aug 28, 2009 11:20 AM

Thats weird, i was signed in when i posted it but it says posted as unregistered. Oh well.

guest
Wanna post a correction for this tab? Suggest correction