Oops, an error
Loading. Please wait.

Never Too Late Bass Tab

version 1
version 1

Intro

Whole song

Interactive

1,944 views 1 this week
no commentswrite comment
1 2 3 4 5
please rate
add to favorites
launch autoscroll
font size
0
reset
guitar tuner
Autoscroll
slow
fast
+/-
esc
set tempo
stop
Help us to improve Ultimate-Guitar.com Take our survey!
×
I can only figure out from the start till just before the chorus, here it is:

G----------------|----------------|----------------|----------------|
D----------------|----------------|----------------|----------------|
A-4---4---4------|-2---2---2------|-0---0---0------|-2---2---2------|
E----------------|----------------|----------------|----------------|
                                                    v Pick up-ish part
|-----------------|----------------|----------------|-----------------|
|-----------------|----------------|----------------|--------------1--|
|-0h4--4---4------|-2---2---2------|-0---0---0------|--2---2---4------|
|-----------------|----------------|----------------|-----------------|

|---------1---4--------|----------------------|----------------------|
|-2---2----------------|-1---1---2------------|--------------2-------|
|----------------------|-------------2--------|--0---0---4-----------|
|----------------------|----------------------|----------------------|

|-----------------|-----------------------|----------1---4--------|
|----------2------|----------1------------|--2---2----------------|
|--4---4-------4--|--2---2-------2--------|-----------------------|
|-----------------|-----------------------|-----------------------|
    
|-----------------------|-----------------------|-----------------|
|--1---1---2------------|--------------2--------|----------2------|
|--------------2--------|--0---0---4------------|--4---4-------4--|
|-----------------------|-----------------------|-----------------|
    
|-----------------|
|--1---1---4---1--|
|-----------------|
|-----------------|
Suggest correction
Give kudos to tab author, rate the tab!
1 2 3 4 5
comments
print report bad tab
guest
You may want to rate the tab now too:
select rating
Please do not post tabs as comments. Select "correction" instead!