Oops, an error
Loading. Please wait.

Never Too Late Tab

version 1
version 1

Intro

Whole song

Interactive

17,132 views 6 this week
no commentswrite comment
1 2 3 4 5
accurate
x 4
add to favorites
launch autoscroll
font size
0
reset
how to read this tab
guitar tuner
Tab Pro tools
  • play this tab
  • loop segment
  • change instrument
  • show fretboard
  • metronome
×
Best way to learn
"Never Too Late"
Autoscroll
slow
fast
+/-
esc
set tempo
stop
Contributor
----------------------------------------------------------------------------
NEVER TOO LATE (INTRO) - Hedley
----------------------------------------------------------------------------
Tabbed by:Jared
Email:benefit.of.a.doubt@hotmail.com

Tuning:EADGBe

e|-------------------------------------------------------------------------|
B|-------9-------------------------9----------------------------9----------|
G|----------9-----11~~~9--11\---------9---------9--------9--11-----9-------|
D|---/9--------9---------------/9--------9--11-----11--9--9---9------------|
A|-------------------------------------------------------------------------|
E|-------------------------------------------------------------------------|

As for the acoustic guitar chords that Jacob plays I think these are some of the chords,
I’m really not sure about these.

e|-------------------------------------------------------------------------|
B|-------------------------------------------------------------------------|
G|---8---6---9---9---------------------------------------------------------|
D|---9---7---9---10--------------------------------------------------------|
A|---9---7---7---10--------------------------------------------------------|
E|---7---5-------8---------------------------------------------------------|

As for the clean electric, it really just uses those notes I think, it changes during
chorus, but I personally just like to play it with my finger on the 9th fret on the D,G
B strings, and just strumming that. But that’s me. So this is how I think I sounds, and 
hope it’s at least a good starting point. E-mail for questions if you have any
Peace.

| /  slide up
| \  slide down
| h  hammer-on
| p  pull-off
| ~  vibrato
| +  harmonic
| x  Mute note
===============================================================================
comments
print report bad tab
I want to post or [tab]
guest
You may want to rate the tab now too:
select rating
Please do not post tabs as comments. Select "correction" instead!