Oops, an error
Loading. Please wait.

Perfect bass

version 1
version 1

Whole song

Interactive

by Hedley
4,614 views 1 this week
1 commentread comment
1 2 3 4 5
1 last vote to show rating
add to favorites
×
Save as Personal and add changes to this tab that will be seen only by you. Learn more ›
×
You can save this tab as Personal to edit and correct it or add notes. All changes will be seen only by you. Learn more »
launch autoscroll
font size
0
reset
guitar tuner
edit
Autoscroll
slow
fast
+/-
esc
set tempo
stop
Difficulty
intermediate
Hy, here is the bass tab for Hedley's song: Perfect, this is my firts tab :P
Have fun :D


The ***** mean that you must hold the note
intro : x1
--------------------------------------------------------|
--------------------------------------------------------|
--0-0-0-0-----3-3-3-3-----------------------------------|
-------1-1-1-1-----3-3-3-3------------------------------|

Falling a thousand feet per second....

--------------------------------------------------------|
--------------------------------------------------------|
--0-0-0-0-----3-3-3-3----2-2----------------------------|
-------1-1-1-1---------------3-3------------------------|

Making every kind of silence....

--------------------------------------------------------|
--------------------------------------------------------|
--0-0-0-0------3-3-3-3----2-2---------------------------|
-------1-1-1-1-----------------3-3----------------------|

And as long as I can feel you....

--------------------------------------------------------|
--------------------------------------------------------|
--3*****---2*****---0*****----------/10*****------------|
----------------------------1*****----------------------|

I'm not perfect....

------------------------------------------------------------|
------------------------------------------------------------|
--3-3-33-33-3333----0-0-00-00-0000---------------3-33-22/10-|
---------------------------------1-1-11-11-1111-------------|

I'm not alive if i'm lonely....

--------------------------------------------------------|
--------------------------------------------------------|
--0-0-00-00-0000---------------3-3-33-33-3333-2-2-22-22-|2222
-----------------1-1-11-11-1111-------------------------|

Piano intermission
--------------------------------------------------------|
--------------------------------------------------------|
00-00-------33-33---------------------------------------|
------11-11-------33-33---------------------------------|

Making every kind of silence....

--------------------------------------------------------|
--------------------------------------------------------|
--0-0-0-0------3-3-3-3-2-2/10-10------------------------|
-------1-1-1-1------------------------------------------|

And as long as....
--------------------------------------------------------|
--------------------------------------------------------|
-3******-2*****-0*****--------/10*****------------------|
-----------------------1*****---------------------------|

I know that....

-----------------------------------------------------------------------------|
-----------------------------------------------------------------------------|
--3-3-33-33-3333----0-0-00-00-0000---------------3-33-22/10-1010101010101010-|
---------------------------------1-1-11-11-1111------------------------------|

I'm not ....

--------------------------------------------------------|
--------------------------------------------------------|
--0-0-00-00-0000---------------3-3-33-33-3333-2-2-22-22-|2222
-----------------1-1-11-11-1111-------------------------|

When you're caught in a lie

--------------------------------------------------------------|
--------------------------------------------------------------|
--5-5-55-55-5555--3-3-33-33-3333--0-0-00-00-0000-2-22-22-2222-|
--------------------------------------------------------------|

It tears right trough...

----------------------------------------------------------|
----------------------------------------------------------|
-----------------------------------3-3-33-33-3333/10***---|
----0-0-00-00-0000--1-1-11-11-1111------------------------|

I'm not perfect.... Just Jake and the piano, no bass

.... Alive if i'm lonely ( you start at "alive")

-------------------------------------------------------------------|
-------------------------------------------------------------------|
--0-0000-0*****----------------3-3333-3*****-2-2222-2*****/10***---|
-----------------1-1111-1*****-------------------------------------|

I'm not perfect....

--------------------------------------------------------------------|
--------------------------------------------------------------------|
--0-0-00-00-0000-----------------3-3-33-33-3333--2-2-2/101010101010-|
-----------------1-1-11-11-1111-------------------------------------|

I'm not alive....

--------------------------------------------------------|
--------------------------------------------------------|
--0-0-00-00-0000---------------3-3-33-33-3333-2-2-22-22-|2222
-----------------1-1-11-11-1111-------------------------|

My self....

--------------------------------------------------------|
--------------------------------------------------------|
-0-0-00-0000----------------3-3-33-3333-2-2-22-22-2222--|
-------------1-1-11-11-1111-----------------------------|

My self....

--------------------------------------------------------|
--------------------------------------------------------|
0-0-00-00-0000----------------3-3-33-33-3333-2-2--------|
---------------1-1-11-11-1111---------------------------|

no bass in the end, just Jake

The End :) I hope you enjoyed

            
            
Suggest correction
Creating personal tab
Creating personal tab
You can edit any tab online and save it as your Personal.

You can edit, replace or remove any tab part or add personal notes – all changes will be seen only by you.

Personal tabs can be accessed anytime from any device, even offline.
Learn more »
Give kudos to tab author, rate the tab!
1 2 3 4 5
comments
print report bad tab
1 comment total.
0 reply
mahon798 10 Sep 09, 2010 08:43 AM

you should do a bass tab for hands up :)

guest
Wanna post a correction for this tab? Suggest correction