Oops, an error
Loading. Please wait.

Trip bass

version 1
version 1

Whole song

Interactive

by Hedley
1,447 views 1 this week
1 commentread comment
1 2 3 4 5
2 more votes to show rating
add to favorites
×
Save as Personal and add changes to this tab that will be seen only by you. Learn more ›
×
You can save this tab as Personal to edit and correct it or add notes. All changes will be seen only by you. Learn more »
launch autoscroll
font size
0
reset
guitar tuner
edit
Autoscroll
slow
fast
+/-
esc
set tempo
stop
Author
----------------------------------------------------------------------------
                                TRIP - Hedley
----------------------------------------------------------------------------

Tabbed by: BCD_Bryce_BCD
e-mail: crazyoilerfan@hotmail.com

Tuning: Standard

This is a great song by Hedley, the bass part is really cool, and fun to play.
I think i got it perfect, or pretty close, e-mail if you have comments.

Intro

G|-----------------------------------------------------------------------|
D|-----------------------------------------------------------------------|
A|--------------22222222---44444444--------------------------------------|
E|---00000000-------------------------5----------------------------------|

Verse

G|-----------------------------------------------------------------------|
D|-----------------------------------------------------------------------|
A|---7-77---6-66---4-44---6-66/14---7-77---6-66---4-44---6-66------------|
E|-----------------------------------------------------------------------|

Pre-Chorus

G|-----------------------------------------------------------------------|
D|-----------------------------------------------------------------------|
A|-----------------------------------------4444444444444444-/------------|
E|---5555555555555555---7777777777777777---------------------------------|

G|------------------------------------16161616---------------------------|
D|-------------------------------16--------------------------------------|
A|--14141414141414141414141414-------------------------------------------|
E|-----------------------------------------------------------------------|

Chorus

G|-----------------------------------------------------------------------|
D|-----------------------------------------------------------------------|
A|--------------22222222---44444444----------------------------22222222--|
E|---00000000--------------------------5555555/14---00000000-------------|
     Woah....                                       Through...
G|-------------------------------|
D|-------------------------------|
A|---4444---66-77----------------|
E|------------------5------------|
                    Cause i'm so..

Verse

G|-----------------------------------------------------------------------|
D|-----------------------------------------------------------------------|
A|---7-77---6-66---4-44---6-66/14---7-77/9---6-66/9---4-44---6-66/14-----|
E|-----------------------------------------------------------------------|

Pre-Chorus

G|-----------------------------------------------------------------------|
D|-----------------------------------------------------------------------|
A|---------------------------------1414141414141414---4444444444444444-/-|
E|---5555555555555555---7777777/14---------------------------------------|

G|-------------------------------------16161616--------------------------|
D|--------------------------------16-------------------------------------|
A|---14141414141414141414141414------------------------------------------|
E|-----------------------------------------------------------------------|

Chorus

G|-----------------------------------------------------------------------|
D|-----------------------------------------------------------------------|
A|--------------22222222---44444444----------------------------22222222--|
E|---00000000--------------------------5555555/14---00000000-------------|


G|------------------------------|
D|------------------------------|
A|---4444---66-77---------------|
E|------------------55555555----|

Interlude


G|-----------------------------------------------------------------------|
D|-----------------------------------------------------------------------|
A|----------77777777---66666666-------------77777777---66666666----------|
E|-----------------------------------------------------------------------|

G|-----------------------------------------------------------------------|
D|-----------------------------------------------------------------------|
A|-------------------------77777777---66666666---------------------------|
E|---44444444---55555555-------------------------44444444---55555555-----|

G|---------------------------|
D|---------------------------|
A|---44444444---66666666-----|
E|---------------------------|

Chorus

G|-----------------------------------------------------------------------|
D|-----------------------------------------------------------------------|
A|------------22222222---44444444---------------------------22222222-----|
E|---0-0----------------------------5555555/14---00000000----------------|

G|-----------------------------------------------------------------------|
D|-----------------------------------------------------------------------|
A|---4444--66-77---------------------------------------------------------|
E|-----------------55555555----------------------------------------------|

Outro [Chorus]

G|-----------------------------------------------------------------------|
D|-----------------------------------------------------------------------|
A|--------------22222222---44444444---------------------------22222222---|
E|---00000000-------------------------55555555---00000000----------------|

G|-------------------|
D|-------------------|
A|---44444444--------|
E|--------------5----|

There it is! My second tab. I had tons of fun making it, and I hope you enjoy it as much as i did. Thanks.
C-ya











            
            
Suggest correction
Creating personal tab
Creating personal tab
You can edit any tab online and save it as your Personal.

You can edit, replace or remove any tab part or add personal notes – all changes will be seen only by you.

Personal tabs can be accessed anytime from any device, even offline.
Learn more »
Give kudos to tab author, rate the tab!
1 2 3 4 5
comments
print report bad tab
1 comment total.
-1 reply
GreenDaykid_16 171 Jan 14, 2006 07:51 PM

hey buddy, good job and all but... jacob(the lead singer is my cousin) and trust me, its played on a 5 string bass. But good job

guest
You may want to rate the tab now too:
select rating
Wanna post a correction for this tab? Suggest correction