Oops, an error
Loading. Please wait.

Trip tab

version 4
version 4

Whole song

Interactive

by Hedley
3,061 views 1 this week
3 commentsread comments
1 2 3 4 5
x 3
add to favorites
×
Save as Personal and add changes to this tab that will be seen only by you. Learn more ›
×
You can save this tab as Personal to edit and correct it or add notes. All changes will be seen only by you. Learn more »
launch autoscroll
font size
0
reset
how to read this tab
guitar tuner
edit
Autoscroll
slow
fast
+/-
esc
set tempo
stop
Author
Difficulty
Hedley
Trip
Tabbed By: Jeremy Waterman
Tuning: Standard - EADGBE

 This is I guess my third tab, but my first
with a solo, and I don't think there's any other Trip tabs with the solo in it. (None
that I know, anyways) So here's the full version of Trip (or at least my full version).
Please send comments, complaints, corrections, or love mail to infectedwithyou@hotmail.com.

Legend:
/ Slide Up
\ Slide Down
h Hammer On
p Pull Off
b Bend
x Mute Note

Intro: (Two diffent guitars for this part)
 Guitar 1
E[-------------------]
B[-------------------]
G[-9---11---14---13\-]
D[-------------------] (x3)
A[-------------------]
E[-------------------]

E[------------------------]
B[------------------------]
G[-9---11---14---13\----2-]
D[------------------------]
A[------------------------]
E[------------------------]

 Guitar 2
E[--------------------------------]
B[--------------------------------]
G[-99999999-99999999-6666/88/99\2-]
D[-99999999-99999999-6666/88/99\2-] (let ring)
A[-77777777-66666666-4444/66/77\0-]
E[--------------------------------]

Verse 1:
E[---------------------------------]
B[---------------------------------]
G[-----9-------9-------9-------9---]
D[---9---9---9---9---9---9---9---9-] (x2)
A[-7-------6-----------------------]
E[-----------------9-------7-------]

Pre-Chorus:
E[--------------------------------------------------------------]
B[--------------------------------------------------------------]
G[---9--9--9--9--9--9--9--9--9--9--9--9--9--9--9--9--9--9--9--9-]
D[--9--9--9--9--9--9--9--9--9--9--9--9--9--9--9--9--9--9--9--9--]
A[-7--7--7--7--7--6--6--6--6--6---------------------------------]
E[-------------------------------9--9--9--9--9--7--7--7--7--7---]

Chorus:
E[------------------------------------------------------------]
B[------------------------------------------------------------]
G[-9-9-9-9-9-999--9-9-9-9-9-999--9-9-9-9-9-999--9-9-9-9-9-999-]
D[-9-9-9-9-9-999--9-9-9-9-9-999--9-9-9-9-9-999--9-9-9-9-9-999-]
A[-7-7-7-7-7-777--6-6-6-6-6-666--x-x-x-x-x-xxx--x-x-x-x-x-xxx-]
E[----------------7-7-7-7-7-777--9-9-9-9-9-999--7-7-7-7-7-777-]

E[------------------------------------------------------]
B[------------------------------------------------------]
G[-9-9-9-9-9-999--9-9-9-9-9-999-------------------------]
D[-9-9-9-9-9-999--9-9-9-9-9-999--11111111/1313/1414-\-7-] (let ring)
A[-7-7-7-7-7-777--6-6-6-6-6-666--11111111/1313/1414-\-7-]
E[----------------7-7-7-7-7-777--9-9-9-9-/1111/1212-\-5-]

Post-Chorus:
E[---------------]
B[---------------]
G[-9--11--14--13-]
D[---------------] (x2)
A[---------------]
E[---------------]

E[-------------------------------------------]
B[-------------------------------------------]
G[-9--11--14--13-----13b---13b---------------]
D[----------------------9-----9--9h11p9h11---]
A[-----------------------------------------7-]
E[-------------------------------------------]

Verse 2:
E[---------------------------------]
B[---------------------------------]
G[-----9-------9-------9-------9---]
D[---9---9---9---9---9---9---9---9-]
A[-7-------6-----------------------]
E[-----------------9-------7-------]

Pre-Chorus:
E[--------------------------------------------------------------]
B[--------------------------------------------------------------]
G[---9--9--9--9--9--9--9--9--9--9--9--9--9--9--9--9--9--9--9--9-]
D[--9--9--9--9--9--9--9--9--9--9--9--9--9--9--9--9--9--9--9--9--]
A[-7--7--7--7--7--6--6--6--6--6---------------------------------]
E[-------------------------------9--9--9--9--9--7--7--7--7--7---]

Chorus:
E[------------------------------------------------------------]
B[------------------------------------------------------------]
G[-9-9-9-9-9-999--9-9-9-9-9-999--9-9-9-9-9-999--9-9-9-9-9-999-]
D[-9-9-9-9-9-999--9-9-9-9-9-999--9-9-9-9-9-999--9-9-9-9-9-999-]
A[-7-7-7-7-7-777--6-6-6-6-6-666--x-x-x-x-x-xxx--x-x-x-x-x-xxx-]
E[----------------7-7-7-7-7-777--9-9-9-9-9-999--7-7-7-7-7-777-]

E[-----------------------------------------------------------]
B[-----------------------------------------------------------]
G[-9-9-9-9-9-999--9-9-9-9-9-999------------------------------]
D[-9-9-9-9-9-999--9-9-9-9-9-999--11111111/1313/1414-\-777777-]
A[-7-7-7-7-7-777--6-6-6-6-6-666--11111111/1313/1414-\-777777-]
E[----------------7-7-7-7-7-777--9-9-9-9-/1111/1212-\-555555-]

Bridge:
E[-------------------------]
B[-------------------------]
G[-------------------------]
D[-------------------------]
A[-------------------------]
E[----4-------5------------]
                  "Can you hear me?"

E[-------------------------]
B[-------------------------]
G[-999999/111111111111/13\-]
D[-999999/111111111111/13\-]
A[-777777/9-9-9-9-9-9-/11\-]
E[-------------------------]

E[-------------------------]
B[-------------------------]
G[-------------------------]
D[-------------------------]
A[-------------------------]
E[-444444/555555/777777----]
      "Cause I can't change what I've"

E[-----------------------------------------]
B[-----------------------------------------]
G[-999999/111111111111/131313131313\999999-]
D[-999999/111111111111/131313131313\999999-]
A[-777777/9-9-9-9-9-9-/111111111111\777777-]
E[-----------------------------------------]
    "Al - ways    --   been,   --   yeah!

Solo:
E[-----------------------------------------------------------]
B[-----------------------------------------------------------]
G[---------9---9---8---8------------13--13--14--14-----------]
D[----------9---9---8---8----------11--11--11--11---13h16p14-]
A[-7h9p7-----7---7---6---6--6h9p7----------------------------]
E[-----------------------------------------------------------]

E[-12----12----12----12----11b-9-11-]
B[---12----12----12----12-----------]
G[-----9-----9-----8-----8----------]
D[----------------------------------]
A[----------------------------------]
E[----------------------------------]

Chorus:
E[------------------------------------------------------------]
B[------------------------------------------------------------]
G[-9-9------------9-9-9-9-9-999--9-9-9-9-9-999--9-9-9-9-9-999-]
D[-9-9------------9-9-9-9-9-999--9-9-9-9-9-999--9-9-9-9-9-999-]
A[-7-7------------6-6-6-6-6-666--x-x-x-x-x-xxx--x-x-x-x-x-xxx-]
E[----------------7-7-7-7-7-777--9-9-9-9-9-999--7-7-7-7-7-777-]

E[-----------------------------------------------------------]
B[-----------------------------------------------------------]
G[-9-9-9-9-9-999--9-9-9-9-9-999------------------------------]
D[-9-9-9-9-9-999--9-9-9-9-9-999--11111111/1313/1414-\-777777-]
A[-7-7-7-7-7-777--6-6-6-6-6-666--11111111/1313/1414-\-777777-]
E[----------------7-7-7-7-7-777--9-9-9-9-/1111/1212-\-555555-]

Outro:
E[------------------------------------------------------------]
B[------------------------------------------------------------]
G[-9-9-9-9-9-999--9-9-9-9-9-999--9-9-9-9-9-999--9-9-9-9-9-999-]
D[-9-9-9-9-9-999--9-9-9-9-9-999--9-9-9-9-9-999--9-9-9-9-9-999-]
A[-7-7-7-7-7-777--6-6-6-6-6-666--x-x-x-x-x-xxx--x-x-x-x-x-xxx-]
E[----------------7-7-7-7-7-777--9-9-9-9-9-999--7-7-7-7-7-777-]

E[-----------------------------------------------------------------]
B[-----------------------------------------------------------------]
G[-9-9-9-9-9-999--9-9-9-9-9-999----------------------------------9-]
D[-9-9-9-9-9-999--9-9-9-9-9-999--11111111/1313/1414-\-77777777---9-]
A[-7-7-7-7-7-777--6-6-6-6-6-666--11111111/1313/1414-\-77777777---7-]
E[----------------7-7-7-7-7-777--9-9-9-9-/1111/1212-\-55555555-----]
                                                               (x2)
E[------0--]
B[-----1---]
G[----2----]
D[---2-----]
A[--0------]
E[-0-------]
Suggest correction
Creating personal tab
Creating personal tab
You can edit any tab online and save it as your Personal.

You can edit, replace or remove any tab part or add personal notes – all changes will be seen only by you.

Personal tabs can be accessed anytime from any device, even offline.
Learn more »
Give kudos to tab author, rate the tab!
1 2 3 4 5
comments
print report bad tab
3 comments total.
0 reply
GreenDaykid_16 171 Nov 25, 2006 12:42 PM

this is a ****ing terrible tab. It doesnt sound anything like it, all the trip tabs suck balls, this stuff isnt that hard

0 reply
Addero 283 Nov 28, 2006 02:23 AM

Then make your own, jackass.
Just to let you know, all the other Trip tabs are fine, they just didn't have the bridge.

0 reply
Rocker_94 200 May 22, 2008 03:10 PM

None of these tabs seem too correct, but Green Day Kid went a little over the edge. It ain't that bad of a tab

guest
You may want to rate the tab now too:
select rating
Wanna post a correction for this tab? Suggest correction