Oops, an error
Loading. Please wait.

The Art Of Escape Tab

version 2
version 2

Whole song

  • This is an extremely basic tab intended as a kick ... Show more
  • Very thourough and easy for anyone to learn.
145 views 9 this week
no commentswrite comment
1 2 3 4 5
1 last vote to show rating
add to favorites
launch autoscroll
font size
0
reset
how to read this tab
guitar tuner
Autoscroll
slow
fast
+/-
esc
set tempo
stop
Help us to improve Ultimate-Guitar.com Take our survey!
×
Author
Difficulty
Tuning
intermediate
C# G# E B F# C#
About this tab version
Very thourough and easy for anyone to learn. Was this info helpful? Yes No
SONG: The Art of Escape
ARTIST: Hein Cooper
TABS BY: Kearnz1986
EMAIL: Kearnz86@gmail.com
YouTube Video: https://youtu.be/MiLME2aq3sA

NOTE: Listen and play in sections to get used to the strumming and singing.

TUNING: 
        C#|--0--|
        G#|--0--|
         F|--0--|
        C#|--0--|
        G#|--0--|
        C#|--0--|


INTRO

C#|----0-------0-------------------------------0-|----------------------------------------------------------|
G#|----4------------4-----------------4----------|-------4--------------5p4p2--------------2----------------|
 F|----0---0----------------0-------------0------|---------------0------------------3---------------3-------|
C#|----0----------------0------------------------|------------0------------------0--------------0-----------|
G#|----0-----------------------------------------|----------------------------------------------------------|
C#|----0---------0---------------0---------------|--0-------------------0---------------0-------------------|

C#|-------------------------------------|
G#|-------------------------------------|
 F|-------------------------------------|
C#|------------0h2\4/2p0----------------|
G#|----0h2------------------------------|
C#|-------------------------------------|

C#|----0^-------0-------------------------------0-|---------------------------------------------------|
G#|----4^-------------4-----------------4---------|-------4--------------9----------------9-----------|
 F|----0^---0----------------0--------------0-----|---------------0---------------0--------------0----|
C#|----0^----------------0------------------------|-----------0---------------0--------------0--------|
G#|----0^-----------------------------------------|---------------------------------------------------|
C#|----5^---------5---------------5---------------|--5------------------\9-----------9----------------|

C#|---------------------------------|------------------|---------------------------------------------|
G#|----7---------------7------------|------------------|-----9---------5---------7---------9---------|
 F|------------0---------------0----|-----second time--|-----------0---------0---------0---------0---|
C#|--------0---------------0--------|------------------|--------0---------0---------0---------0------|
G#|---------------------------------|------------------|---------------------------------------------|
C#|----7----------7-----------------|------------------|-----9---------5---------7---------0---------|

C#|---------------------------------------|------------------------------------------------------------|
G#|--------9------------9-----------------|-9----------10p9--------------9--------------9--------------|
 F|----------------0-------------0--------|---------0--------------0---------------0-------------0-----|
C#|------------0-------------0------------|-----0--------------0--------------0--------------0---------|
G#|---------------------------------------|------------------------------------------------------------|
C#|----0-----------------0-------------0--|-------------0--------------0----------------0-----------0--|

C#|---------------------|
G#|-------9/------------|
 F|---------------0-----|
C#|-----------0---------|
G#|---------------------|
C#|---------------------|

VERSE 
   
C#|---------------------------------------|---------------------0-------------------------0-------------|
G#|----5-------------5-----------5--------|--7\---------4------------4------------4-------------4-------|
 F|------------0-------------0----------0-|---------0-------0--------------0----------0---------------0-|
C#|--------0-------------0----------0-----|-----0-----------------------0--------------------------0----|
G#|---------------------------------------|-------------------------------------------------------------|
C#|----0---------0---------------0--------|--0----------0---------0------------0-------------0----------|

C#|----------------|------------------------------------------------------------------------------------|
G#|----5--4--0-----|---------------------------------------------------9---------7---------5------------|
 F|-------------0--|---3h5-----------5---------0------------0----------------0---------0---------0------|
C#|----------------|-----------0-----------0----------0-----------0-------0---------0---------0---------|
G#|----------------|--------0-----------0----------0-----------0----------------------------------------|
C#|----0--0--0--0--|---5----------5------------5---------5-------------9---------7---------0--------0---|

C#|------------0---------------------------------|
G#|------5-----------5---------5-----------------|
 F|---------0------------0-----------0-----------|
C#|--------------------0----------0--------------|
G#|----------------------------------------------|
C#|---------------0---------0--------------------|

C#|-------------------------0--------------|--------------------0-------------------------0--------------|
G#|----5-------------5------------5--------|--7\---------4------------4------------4-------------4-------|
 F|------------0---------0---------------0-|---------0-------0--------------0----------0---------------0-|
C#|--------0-------------------------0-----|-----0-----------------------0--------------------------0----|
G#|----------------------------------------|-------------------------------------------------------------|
C#|----0----------0------------0-----------|--0----------0---------0------------0-------------0----------|

C#|----------------|------------------------------------------------------------------------------------|
G#|----5--4--0-----|---------------------------------------------------9---------7---------5------------|
 F|-------------0--|---3h5-----------5---------0------------0----------------0---------0---------0------|
C#|----------------|-----------0-----------0----------0-----------0-------0---------0---------0---------|
G#|----------------|--------0-----------0----------0-----------0----------------------------------------|
C#|----0--0--0--0--|---5----------5------------5---------5-------------9---------7---------0--------0---|

C#|-----------------------------------|----------------------------------------|
G#|---------5-----------5-----------5-|----------5-----------5-----------5-----|
 F|------0-----------0-----------0----|-------0-----------0-----------0--------|
C#|---0-----------0-----------0-------|----0-----------0-----------0-----------|
G#|-----------------------------------|----------------------------------------|
C#|------------0-----------0----------|-0-----------0-----------0--------------|


C#|-------------------------------------|
G#|-------------------------------------|
 F|-------------------------------------|
C#|------------0h2\4/2p0----------------|
G#|----0h2------------------------------|
C#|-------------------------------------|

CHORUS

C#|-------------------------0-------------|----------------------------------------------------0------------|
G#|----5-------------5------------5-------|----5----------9---------5---------7-----------7---------7-------|
 F|------------0---------0--------------0-|----------0----------0---------0---------0--------0------------0-|
C#|--------0-------------------------0----|-------0----------0---------0---------0--------------------0-----|
G#|---------------------------------------|-----------------------------------------------------------------|
C#|----5----------5------------5----------|-5-------------9---------5---------7--------7---------7----------|

C#|---------------------------------------------|
G#|-----7---------------------------------------|
 F|----------0----------------------------------|
C#|-------0-----------0h2\4/2p0-----------------|
G#|-------------0h2-----------------------------|
C#|--7------------------------------------------|

C#|-------------------------0-------------|----------------------------------------------------0------------|
G#|----5-------------5------------5-------|----5----------9---------5---------7-----------7---------7-------|
 F|------------0---------0--------------0-|----------0----------0---------0---------0--------0------------0-|
C#|--------0-------------------------0----|-------0----------0---------0---------0--------------------0-----|
G#|---------------------------------------|-----------------------------------------------------------------|
C#|----5----------5------------5----------|-5-------------9---------5---------7--------7---------7----------|


C#|-------------0----------------------------------------------------|------------------------|
G#|-------7----------7------------7----------7--------------7--------|------------------------|
 F|----------0--------------0-----------0-----------0-------------0--|--0----0----0----0------|
C#|---------------------0-----------0-----------0-------------0------|--0----0----0----0------|
G#|------------------------------------------------------------------|--5----5----9----7------|
C#|----7----------7-----------7-----------7------------7-------------|--4----5----9----7------|

INTRO 2:

C#|----0-------0-------------------------------0-|----------------------------------------------------------|
G#|----4------------4-----------------4----------|-------4--------------5p4p2--------------2----------------|
 F|----0---0----------------0-------------0------|---------------0------------------3---------------3-------|
C#|----0----------------0------------------------|------------0------------------0--------------0-----------|
G#|----0-----------------------------------------|----------------------------------------------------------|
C#|----0---------0---------------0---------------|--0-------------------0---------------0-------------------|

C#|-------------------------------------|
G#|-------------------------------------|
 F|-------------------------------------|
C#|------------0h2\4/2p0----------------|
G#|----0h2------------------------------|
C#|-------------------------------------|

C#|----0^-------0-------------------------------0-|--------------------------------------------------|
G#|----5^------------4-----------------4----------|------4--------------9----------------9-----------|
 F|----0^---0----------------0-------------0------|--------------0---------------0--------------0----|
C#|----0^----------------0------------------------|-----------0---------------0--------------0-------|
G#|----0^-----------------------------------------|--------------------------------------------------|
C#|----5^---------5---------------5---------------|--5-----------------\9-------------9--------------|

C#|--------------------------------|
G#|---7--------------7-------------|
 F|-----------0---------------0----|
C#|-------0---------------0--------|
G#|--------------------------------|
C#|---7-----------7----------------|

C#|----0-------0-------------------------------0--|---------------------------------------------------------|
G#|----4------------4-----------------4-----------|------4--------------5p4p2--------------2----------------|
 F|----0---0----------------0-------------0-------|--------------0------------------3---------------3-------|
C#|----0----------------0-------------------------|-----------0------------------0--------------0-----------|
G#|----0------------------------------------------|---------------------------------------------------------|
C#|----0---------0---------------0----------------|-0-------------------0---------------0-------------------|

C#|-------------------------------------|
G#|-------------------------------------|
 F|-------------------------------------|
C#|------------0h2\4/2p0----------------|
G#|----0h2------------------------------|
C#|-------------------------------------|

C#|----0^-------0-------------------------------0-|---------------------------------------------------|
G#|----4^-------------4-----------------4---------|-------4------------9----------5--------7----------|
 F|----0^---0----------------0--------------0-----|---------------0----------0---------0---------0----|
C#|----0^----------------0------------------------|----------0-----------0---------0---------0-------|
G#|----0^-----------------------------------------|---------------------------------------------------|
C#|----5^---------5---------------5---------------|--5----------------\9----------5--------7----------|

VERSE P2

C#|-------------------------0--------------|--------------------0-------------------------0--------------|
G#|----5-------------5------------5--------|--7\---------4------------4------------4-------------4-------|
 F|------------0---------0---------------0-|---------0-------0--------------0----------0---------------0-|
C#|--------0-------------------------0-----|-----0-----------------------0--------------------------0----|
G#|----------------------------------------|-------------------------------------------------------------|
C#|----0----------0------------0-----------|--0----------0---------0------------0-------------0----------|

C#|----------------|------------------------------------------------------------------------------------|
G#|----5--4--0-----|---------------------------------------------------9---------7---------5------------|
 F|-------------0--|---3h5-----------5---------0------------0----------------0---------0---------0------|
C#|----------------|-----------0-----------0----------0-----------0-------0---------0---------0---------|
G#|----------------|--------0-----------0----------0-----------0----------------------------------------|
C#|----0--0--0--0--|---5----------5------------5---------5-------------9---------7---------0--------0---|

C#|------------0---------------------------------|
G#|------5-----------5---------5-----------------|
 F|---------0------------0-----------0-----------|
C#|--------------------0----------0--------------|
G#|----------------------------------------------|
C#|---------------0---------0--------------------|

C#|-------------------------0--------------|--------------------0-------------------------0--------------|
G#|----5-------------5------------5--------|--7\---------4------------4------------4-------------4-------|
 F|------------0---------0---------------0-|---------0-------0--------------0----------0---------------0-|
C#|--------0-------------------------0-----|-----0-----------------------0--------------------------0----|
G#|----------------------------------------|-------------------------------------------------------------|
C#|----0----------0------------0-----------|--0----------0---------0------------0-------------0----------|

C#|----------------|-------------------------------------------------------------------------------------|
G#|----5--4--0-----|---------------------------------------------------9---------5---------7--------5----|
 F|-------------0--|---3h5-----------5---------0------------0----------------0---------0---------0-------|
C#|----------------|-----------0-----------0----------0-----------0-------0---------0---------0----------|
G#|----------------|--------0-----------0----------0-----------0-----------------------------------------|
C#|----0--0--0--0--|---5----------5------------5---------5-------------9---------5---------7--------0----|

C#|----------------------------------------------|---------------------------------------------------------|
G#|---------5-----------5-----------5------------|---9-----------9---------9-------------9-----------------|
 F|------0-----------0-----------0-----------0---|---------0-----------0----------0------------0-----------|
C#|---0-----------0-----------0-----------0------|------0-----------0----------0------------0--------------|
G#|----------------------------------------------|---------------------------------------------------------|
C#|------------0-----------0-----------0---------|---9--------9------------9----------9--------------------|

C#|------------------------------|
G#|----5---------7----------5----|
 F|----------0---------0---------|
C#|-------0---------0------------|
G#|------------------------------|
C#|----5---------7----------0----|

C#|-----------------------------------|----------------------------------------|
G#|---------5-----------5-----------5-|----------5-----------5-----------5-----|
 F|------0-----------0-----------0----|-------0-----------0-----------0--------|
C#|---0-----------0-----------0-------|----0-----------0-----------0-----------|
G#|-----------------------------------|----------------------------------------|
C#|------------0-----------0----------|-0-----------0-----------0--------------|

CHORUS

OUTRO (Repeat)

C#|--------------------------------------------------------------------|
G#|--------------------------------------------------------------------|
 F|--------------------------------------------------------------------|
C#|---0---0---0---0----0---0--0--0---0---0---0---0----0---0--0--0------|
G#|---5---5---5---5----5---5--5--5---9---9---9---7----7---7--7--7------|
C#|---4---4---4---5----5---5--5--5---9---9---9---7----7---7--7--7------|

      X   X   X   X    X      X  X   X    X   X  X    X      X  X

LYRICS:

Kiss my lips,
Push me over into the sea,
Then jump in after me,

Let's swim,
To the bottom,
Maybe we might find an open door connected to the ocean floor,

I could give it one more time,
Take my side,
As we perfect the art of escape,

So damn Bored,
Living on the 15th floor,
Choking on electric chords,
While you act like you know,
Everything about pleasure and Pain,
The sunlit rain,
When the only thing that's sure is this unsteady ground.

I could give it one more time,
Take my side,
As we perfect the art of escape.


************************************

| X   Palm mute
| /   Slide up
| \   Slide down


************************************
Suggest correction
Give kudos to tab author, rate the tab!
1 2 3 4 5
comments
print report bad tab
guest
You may want to rate the tab now too:
select rating
Wanna post a correction for this tab? Suggest correction