Oops, an error
Loading. Please wait.

Hoods Up Tab

28 views 6 this week
no commentswrite comment
1 2 3 4 5
3 more votes to show rating
add to favorites
launch autoscroll
font size
0
reset
how to read this tab
guitar tuner
Autoscroll
slow
fast
+/-
esc
set tempo
stop
Help us to improve Ultimate-Guitar.com Take our survey!
×
Author
Difficulty
Capo
intermediate
7th fret
Capo 7th fret
Instagram: _mvddy_
Frets correspond to capo 
(9th fret is actually 2nd fret corresponding to the capo) 
Solo starts; 2:19

e|-------------------------------------------------------------------------------------------------------|
B|-----------7b8r7---------------------------------------------------------------------------------------|
G|-/7~~~~~-----------2/4\2p0------------4-----------------0---2/4\2p0----------4-------------------------|
D|-------------------------------0h2--------2/4\2p0----------------------0h2---------2/4\2p0---- --------|
A|-----------------------------------------------------2--------------------------------------------2----|
E|-------------------------------------------------------------------------------------------------------|

e|-------------2/3\2p0----------------------------2/3\2p0----------------------------------|
B|-0---3/5\3p0-------------3/5\3p0----------3/5\3p0-------------3/5\3p0--------------------|
G|---------------------------------2-----0----------------------------------2/4------------|
D|-----------------------------------------------------------------------------------------|
A|-----------------------------------------------------------------------------------------|
E|-----------------------------------------------------------------------------------------|

e|-----------------------------------------------------------------------------------------|
B|-----------------------------------------------------------------------------------------|
G|--2/4\2p0------------4-----------------------0---2/4\2p0-------4-------------------------|
D|--------------0h2--------2/4\2p0--------------------------0h2-------2/4\2p0--------------|
A|-------------------------------------2--------------------------------------------2------|
E|-----------------------------------------------------------------------------------------|

e|-------------2/3\2p0----------------------------2/3\2p0----------------------------------|
B|-0---3/5\3p0-------------3/5\3p0----------3/5\3p0-------------3/5\3p0--------------------|
G|---------------------------------2-----0-------------------------------------------------|
D|-----------------------------------------------------------------------------------------|
A|-----------------------------------------------------------------------------------------|
E|-----------------------------------------------------------------------------------------|

This solo sound great with heavy echo/delay
Enjoy!

***********************************

| h   Hammer-on
| p   Pull-off
| r   Release
| b   Bend
| br  Bend release
| /   Slide up
| \   Slide down
| ~   Vibrato

************************************
Suggest correction
Give kudos to tab author, rate the tab!
1 2 3 4 5
comments
print report bad tab
guest
You may want to rate the tab now too:
select rating
Wanna post a correction for this tab? Suggest correction