Oops, an error
Loading. Please wait.

Choros No1 tab

version 1
version 1

Whole song

Interactive

160 views 21 this week
no commentswrite comment
1 2 3 4 5
2 more votes to show rating
add to favorites
×
Save as Personal and add changes to this tab that will be seen only by you. Learn more ›
×
You can save this tab as Personal to edit and correct it or add notes. All changes will be seen only by you. Learn more »
launch autoscroll
font size
0
reset
how to read this tab
guitar tuner
edit
Autoscroll
slow
fast
+/-
esc
set tempo
stop
Author
Difficulty
  [A1]
e|-----------|-2---2--------3--2--0------------|-----------------------------0--3-|
B|----5--8---|-2---2------4----0--0---------1--|-0--0---------------0------0------|
G|--4--------|-3---3----4------0--0-------0----|-2--2---------------0-------------|
D|-----------|-2------------------------2------|-1--1-------1/5--4--2-------------|
A|-----------|-4------2------------------------|----------0-----------------------|
E|-----------|-2---------------0------0--------|-2------2--------0-------0--------|

e|--2---2--------3--2--0------0---|-----------0--3--2--0---------7-----|
B|--2---2------4----3--0----0---3-|-3--2----2-------2--2-------8-------|
G|--3---3----4------1--1----------|-0--0------------0--0-----9---------|
D|--2-----------------------------|-2--2-------------------------------|
A|--4------2--------------2-------|-0-----0---------0------0-----------|
E|--2---------------0-------------|------------------------------------|

e|-7--5--7--5---10---7--|-5--3-----------5--3--5--3---8---5--|-3--1-----------|
B|-7--7--7--------------|-3--3-----------5--5--5--5----------|-1--1-----------|
G|-5--5--5--------------|-4--4-----------3--3--3--3----------|-2--2-----------|
D|-0--------0-----------|------------------------------------|----------------|
A|----------------------|---------6-5-4--3--------3----------|-------3-4-3-2--|
E|----------------------|-3-----3----------------------------|-1--------------|

e|-3-1--0--1-3--4-|-5-0------------------2-3-2-------|--------2-/-7-------|
B|-3-3--3--3-3----|-----1--------------2-----2-5-2---|-4----4-------------|
G|-1-1--0--1-1----|-------2----------3-------3-----3-|-2--4---------------|
D|----------------|---------2------------------------|-4------------------|
A|-1-------1------|-0---------3-0--------------------|-2------------------|
E|----------------|---------------3--2-------2-------|--------------------|

  [A2]
e|-----------|-2---2--------3--2--0------------|-----------------------------0--3-|
B|----5--8---|-2---2------4----0--0---------1--|-0--0---------------0------0------|
G|--4--------|-3---3----4------0--0-------0----|-2--2---------------0-------------|
D|-----------|-2------------------------2------|-1--1-------1/5--4--2-------------|
A|-----------|-4------2------------------------|----------0-----------------------|
E|-----------|-2---------------0------0--------|-2------2--------0-------0--------|

e|--2---2--------3--2--0------0---|-----------0--3--2--0---------7--|
B|--2---2------4----3--0----0---3-|-3--2----2-------2--2-------8----|
G|--3---3----4------1--1----------|-0--0------------0--0-----9------|
D|--2-----------------------------|-2--2----------------------------|
A|--4------2--------------2-------|-0-----0---------0------0--------|
E|--2---------------0-------------|---------------------------------|

e|-7-5-7---5-3-5---3-5-5---3-1-3--|-1-3-1---3-1-3---0-3-0---3-0-3--|-0-2-0---2-0-2-|
B|-7-7-7---3-3-3---5-5-5---1-1-1--|-3-3-3---3-3-3---2-2-2---2-2-2--|-1-1-1---1-1-1-|
G|-5-5-5---4-4-4---3-3-3---2-2-2--|-1-1-1---1-1-1---0-0-0---0-0-0--|-0-0-0---0-0-0-|
D|-0------------------------------|--------------------------------|---------------|
A|-----------------3--------------|-1-------1-------1-------1------|-1-------1-----|
E|---------3---------------1------|--------------------------------|---------------|

e|-3--0-------------2------2-5----|-0-----<12>---------|
B|-0---0----------2---5--4-----4--|-0--0--<12>---------|
G|-0----0-------3--------2--------|----0--<12>---------|
D|-2-----2---------------4--------|--------------------|
A|-2------2--------------2--------|--------------------|
E|---------3-0--2-----------------|-0------------------|

  [B]
e|-5--3----------------------|-1-0-----------------------0-|--------0----0---0----5-3-0-------|
B|-3--3-------3---6--5----5--|-3-3-------3---3--2-----2--0-|-3-0--1-1-1--1---1----------1-----|
G|-4--4-----4--------3----3--|-1-1-----1--------0-----0--2-|-2-2--2-2-2--0---0--0---------2-0-|
D|--------3----------5----5--|-------0----------2-----2----|-3-0--0---0-----------------------|
A|------5---------3----------|-----2---------0-------------|----------------------------------|
E|-3--------------------3----|-0-------------------3-----1-|------2----------3----------------|

e|----7-5-----7-5-----5-3-----5-3-|----5-----------------3-2----3-2-|---2-0----2-0---|
B|----3-3-----3-3-----3-3-----3-3-|----5--8-5------------0-0----0-0-|---1-1----1-1---|
G|----5-5-----5-3-----4-4-----4-4-|----5------5----------2-2----2-2-|---2-2----2-2---|
D|-4-------4-------3-------3------|-------------7-5----1------1-----|-0--------------|
A|--------------------------------|-7---------------7---------------|--------3-------|
E|--------------------------------|---------------------------------|----------------|

e|---3-1--0-0----|---1-3-----------0-3---5-3--0-|-3-1-----0-------------/5-|
B|---3-3--3-3----|---1-1-----------1-1---2-2----|-1-1--1--0--3--8----------|
G|---1-3--0-0----|---2-2----5-7----0-0---2-2----|-2-2-----0--2--7----------|
D|---------------|----------6-6-----------------|-0----------3--8----------|
A|-1------1----1-|-3--------6-6--3-------0------|------------2--7----------|
E|---------------|--------4---------------------|---------3----------------|

e|-5--3----------------------|-1-0-----------------------0-|--------0----0---0----5-3-0-------|
B|-3--3-------3---6--5----5--|-3-3-------3---3--2-----2--0-|-3-0--1-1-1--1---1----------1-----|
G|-4--4-----4--------3----3--|-1-1-----1--------0-----0--2-|-2-2--2-2-2--0---0--0---------2-0-|
D|--------3----------5----5--|-------0----------2-----2----|-3-0--0---0-----------------------|
A|------5---------3----------|-----2---------0-------------|----------------------------------|
E|-3--------------------3----|-0-------------------3-----1-|------2----------3----------------|

e|---7-5----5-3-----0--8-----------|
B|---3-3----3-3--1--0--5-----------|
G|---5-5----4-4--0--0--0-----------|
D|-4------3------2-----------------|
A|---------------3-----------------|
E|---------------------8-----------|

  [C]
e|---------0-0----------------|-----------------------------|-4-4-4-4-------4----4-------|
B|-0-0--0--2-2--4-4-----------|-----------------------------|-4-4-4-4--7--5-5-5--5-------|
G|-1-1--1--0-0--4-4-----------|-1-1--1---6-6---5---5--------|-5-5-5-5--5--6-6-6--6-------|
D|-2-2--2-------4-4-----------|-2-2--2---7-7---6---6--------|----------6--6---6----------|
A|-2-------1----0-------------|-4-4--4---9-9---7---7--------|-------------4------4-------|
E|-0-----------------4-5-4-2--|-0--------0-----0------0-2-3-|-4-----4---------------0--1-|

e|----2-2-2-------2-----------|--------0-0--------------|------------------------|---2-2--4-2-|
B|----2-2-2--5--4-4-4---------|-0-0-0--2-2--4-4---------|------------------------|---2-2--4-4-|
G|----3-3-3--3--2-2-2---------|-1-1-1--0-0--4-4---------|-1-1-1--6-6--5-5--------|---2-2--2-2-|
D|-----------4--4---4---------|-2-2-2-------4-4---------|-2-2-2--7-7--6-6--------|------------|
A|--------------2-----2-------|-2------1----0-----------|-4-4-4--9-9--7-7--------|-0------3---|
E|-2------2-------------5-4-2-|-0---------------4-5-4-2-|-0------0----0----0-2-3-|------------|

e|-------------|---------------|----9--7-4-0--------------|
B|---0-0---2-2-|---2-1----0--0-|-0-----------0------------|
G|---1-1---4-4-|---1-0----2--2-|-1-------------1----------|
D|---2-2---3-3-|---2-2----1--1-|-2---------------2--------|
A|-2---3-4---2-|-1---1--2------|-------------------2------|
E|-------------|-------------2-|-0-------------------4----|

e|---------0-0----------------|-----------------------------|-4-4-4-4-------4----4-------|
B|-0-0--0--2-2--4-4-----------|-----------------------------|-4-4-4-4--7--5-5-5--5-------|
G|-1-1--1--0-0--4-4-----------|-1-1--1---6-6---5---5--------|-5-5-5-5--5--6-6-6--6-------|
D|-2-2--2-------4-4-----------|-2-2--2---7-7---6---6--------|----------6--6---6----------|
A|-2-------1----0-------------|-4-4--4---9-9---7---7--------|-------------4------4-------|
E|-0-----------------4-5-4-2--|-0--------0-----0------0-2-3-|-4-----4---------------0--1-|

e|----2-2-2-------2-----------|--------0-0--------------|------------------------|---2-2--4-2-|
B|----2-2-2--5--4-4-4---------|-0-0-0--2-2--4-4---------|------------------------|---2-2--4-4-|
G|----3-3-3--3--2-2-2---------|-1-1-1--0-0--4-4---------|-1-1-1--6-6--5-5--------|---2-2--2-2-|
D|-----------4--4---4---------|-2-2-2-------4-4---------|-2-2-2--7-7--6-6--------|------------|
A|--------------2-----2-------|-2------1----0-----------|-4-4-4--9-9--7-7--------|-0------3---|
E|-2------2-------------5-4-2-|-0---------------4-5-4-2-|-0------0----0----0-2-3-|------------|

e|-------------|---------------|-0--------------------|
B|---0-0---2-2-|---2-1----0--0-|-0--------------------|
G|---1-1---4-4-|---1-0----2--2-|-1--------------------|
D|---2-2---3-3-|---2-2----1--1-|-----<7>--------------|
A|-2---3-4---2-|-1---1--2------|----------------------|
E|-------------|-------------2-|-0----------9p7-------|


***********************************

| /  Slide up 
| <> Natural Harmonics
| p  Pull-off

***********************************

            
            
Suggest correction
Creating personal tab
Creating personal tab
You can edit any tab online and save it as your Personal.

You can edit, replace or remove any tab part or add personal notes – all changes will be seen only by you.

Personal tabs can be accessed anytime from any device, even offline.
Learn more »
Give kudos to tab author, rate the tab!
1 2 3 4 5
comments
print report bad tab
guest
You may want to rate the tab now too:
select rating
Wanna post a correction for this tab? Suggest correction