Oops, an error
Loading. Please wait.

Trumers Melodie Chords

by Hel
186 views 1 this week
no commentswrite comment
1 2 3 4 5
please rate
add to favorites
launch autoscroll
font size
0
reset
transpose
0
reset
- display chords -
guitar tuner
Tab Pro tools
  • play this tab
  • loop segment
  • change instrument
  • show fretboard
  • metronome
Autoscroll
slow
fast
+/-
esc
set tempo
stop
Title: Träumers Melodie
Artist: Hel
Tagger: Mark U.
Tempo = 72

Intro:

E |--------1--------1----|--------3--------3----|--------1--------1----|
B |----------------------|-----3--------3-------|----------------------|
G |-----2--------2-------|----------------------|-----2--------2-------|
D |--0--------0----------|--0--------0----------|--0--------0----------|
A |----------------------|----------------------|----------------------|
E |----------------------|----------------------|----------------------|


   --------0-------------|--------1--------1----|--------3--------3----|
   --------------3--2----|----------------------|-----3--------3-------|
   -----2----------------|-----2--------2-------|----------------------|
   --0--------0----------|--0--------0----------|--0--------0----------|
   ----------------------|----------------------|----------------------|
   ----------------------|----------------------|----------------------|


   --------1--------1----|--------0-------------||
   ----------------------|--------------3--2----||
   -----2--------2-------|-----2----------------||
   --0--------0----------|--0--------0----------||
   ----------------------|----------------------||
   ----------------------|----------------------||

Dm               Gm
Wenn der Tag sein Licht verliert,
Dm              A
am Horizont die Nacht berührt,
Dm               Gm
schon die weißen Nebel loh'n
Dm            A
über Ufer und Niederung

Dm           Gm
Unter Bäumen Schatten ruh'n,
Dm                   A
längst scheint jeder Ton verstummt
Dm             Gm
Weht aus jenem Grunde tief
Dm               A
des Träumers Melodie ...


            Dm         Gm        A  
... auf des Traumwinds Schwingen steigend,
Dm   Gm        A  
über Wolke und Stern,
Am       Dm    E 
und nun dieser Welt enteilend
Am   Dm      E
in erträumte Fernen


Dm                     A
Und der Wind singt für ihn
Gm                         Dm      A
Und sein Traum breitet die Flü-ühü-gel,
Dm                 A
zieht auf maßlosen Schwingen
Gm                Dm      A
Traum im Wind und Mel-oho-die

Dm      Gm       A
Und der Wind ist sein Lied
                Und er weiß jedes Wort
Dm       Gm      A               Am
Träumers Mel-oho-die
                  trägt ihn weit fort
 
Am   Dm          E
Über Wolken nach Sternen greifend
Am    Dm        E
um im Traumwind zu verweilen

Dm    Gm    A
Ahhhh Ahhhh Ahhh ahh-ahh-ahh-
Dm    Gm    A
Ahhh  Ahhhh Ahhhhhhhhhhhhhhhh
Am    Dm    E
Ahhhh Ahhhh Ahhh ahh
Am    Dm    E
Ahhhh Ahhhh Ahhh ahh


1 x "Und der Wind singt für ihn" ...

Zwischenspiel:
Dm Am Dm Am

6 x
Dm            Am
Treibt dahin, treibt dahin...

Dm
und verweilt

Guitar-Solo:

4 x 
Dm   Gm   Dm   A

2x
Am   Gm   E

2x
Dm   Am   Gm   Dm   A

Dm                      Am   Gm   Dm   A
Und der Wind singt für ihn

3x
Dm   Am   Gm   Dm   A


comments
We did not receive enough feedback on this tab! Please rate:
print report bad tab
1 2 3 4 5
I want to post or [tab]
guest
You may want to rate the tab now too:
select rating
Please do not post tabs as comments. Select "correction" instead!