Oops, an error
Loading. Please wait.

My Number One tab

version 1
version 1

Whole song

Interactive

1,384 views 1 this week
no commentswrite comment
1 2 3 4 5
2 more votes to show rating
add to favorites
×
Save as Personal and add changes to this tab that will be seen only by you. Learn more ›
×
You can save this tab as Personal to edit and correct it or add notes. All changes will be seen only by you. Learn more »
launch autoscroll
font size
0
reset
how to read this tab
guitar tuner
edit
Autoscroll
slow
fast
+/-
esc
set tempo
stop
Author
Song: My Number One
Artist: Helena Paparizou
Composer: Christos Dantis
Lyrics: Natalia Germanou/ Christos Dantis
Tabber: pozzire

Album: Proteraiotita Euro Edition
       My Number One

This is the Winner of Eurovision 2005 in Kiev, Ukraine - Go Greece!
It deserved to win and I'm not saying that being part greek (...yes i am)
There were many great songs that were in the same league as this song like
Norway, Moldova, Switzerland that didn't finish as well as they should of.

Here is the tab (Go Greece!, Athens 2006!!! καλής εκτέλεσης Ελλάδα!!)

Intro
C#m
E|------------------------------|
B|--5-5---5-5----5-5---5-5------|
G|--6-6---6-6----6-6---6-6------|
D|--6-6---6-6----6-6---6-6------| 
A|--4-4---4-4----4-4---4-4------|
E|------------------------------|


Verse 1

E|------------------------------|
B|--5-5---5-5----5-5---5-5------|
G|--6-6---6-6----6-6---6-6------|
D|--6-6---6-6----6-6---6-6------| 
A|--4-4---4-4----4-4---4-4------|
E|------------------------------|
You're my lover, undercover......

E|------------------------------|
B|--5-5---5-5----4-4---5-5------|
G|--6-6---6-6----4-4---6-6------|
D|--6-6---6-6----4-4---6-6------| 
A|--4-4---4-4----2-2---4-4------|
E|------------------------------|
You're my secret passion and I have no other.... 

(For rest of verse play riff until)

E|------------------------------|
B|--2-2---2-2----4-4---5-5------|
G|--2-2---2-2----4-4---6-6------|
D|--4-4---2-2----4-4---6-6------| 
A|--4-4---4-4----2-2---4-4------|
E|--2-2---2-2-------------------|

Take me up to heaven and you won’t regret it

Chorus

E                       B
You are the one, you’re my number one
F#m                    C#m
The only treasure I’ll ever have
E                      B
You are the one,you’re my number one
F#m                                A    B   C#m
Anything for you ’cause you’re the one  I  love


E|------------------------------|
B|--5-5---5-5----5-5---5-5------|
G|--6-6---6-6----6-6---6-6------|
D|--6-6---6-6----6-6---6-6------| 
A|--4-4---4-4----4-4---4-4------|
E|------------------------------|
You're my lover, undercover......

E|------------------------------|
B|--5-5---5-5----4-4---5-5------|
G|--6-6---6-6----4-4---6-6------|
D|--6-6---6-6----4-4---6-6------| 
A|--4-4---4-4----2-2---4-4------|
E|------------------------------|
You're my secret passion and I have no other

INSTRUMENTAL/ LYRA
Play Verse Riff Twice

Verse 2
No Chord
You're a fire and desire (HEY!)

E|------------------------------|
B|--5-5---5-5----4-4---5-5------|
G|--6-6---6-6----4-4---6-6------|
D|--6-6---6-6----4-4---6-6------| 
A|--4-4---4-4----2-2---4-4------|
E|------------------------------|
When I kiss your lips, you know, you take me higher .... 

(For rest of verse play riff until)

E|------------------------------|
B|--2-2---2-2----4-4---5-5------|
G|--2-2---2-2----4-4---6-6------|
D|--4-4---2-2----4-4---6-6------| 
A|--4-4---4-4----2-2---4-4------|
E|--2-2---2-2-------------------|

In my empty life you’ll be the only reason


Chorus
You are the one, you're my number one
The only treasure I'll ever have
You are the one, you're my number one
Anything for you 'cause you're the one I love

You're my lover, undercover
You're my secret passion and I have no other (HEY!)


INSTRUMENTAL/ LYRA

Chorus
You are the one, you're my number one
The only treasure I'll ever have
You are the one, you're my number one
Anything for you 'cause you're the one I love

You're my lover, undercover
You're my secret passion and I have no other (HEY!)

CHORUS CHORDS
E|------------------|
B|--0---4--2---5----|
G|--1---4--2---6----|
D|--2---4--2---6----| 
A|--2---2--4---4----|
E|--0------2--------|

Any problems/ Comments/ Requests email me - lil_punk_rocker182@hotmail.com

Check out my tabs for other Eurovision Songs
Suggest correction
Creating personal tab
Creating personal tab
You can edit any tab online and save it as your Personal.

You can edit, replace or remove any tab part or add personal notes – all changes will be seen only by you.

Personal tabs can be accessed anytime from any device, even offline.
Learn more »
Give kudos to tab author, rate the tab!
1 2 3 4 5
comments
print report bad tab
guest
You may want to rate the tab now too:
select rating
Wanna post a correction for this tab? Suggest correction