Oops, an error
Loading. Please wait.

1800-Ghost-Dance Tab

5,400 views 9 this week
1 commentread comment
1 2 3 4 5
excellent!
x 4
add to favorites
launch autoscroll
font size
0
reset
how to read this tab
guitar tuner
Autoscroll
slow
fast
+/-
esc
set tempo
stop
Help us to improve Ultimate-Guitar.com Take our survey!
×
Author
Band: HELLA
Song: 1-800-GHOST-DANCE
Tabbed by: Manet (manetmusic@hotmail.com)
Thanks to: Batfish (http://www.youtube.com/watch?v=TdpzSRjxSYY)

Tuning: DBDGBe

Things to remember while reading/playing this tab:
- I haven't used symbols to tell you where you should tap. You know when you're supposed 
do it. If not, watch Batfish's video on the tube.
- Riff 2 interrupt intro-riff right before the end of the 8th time.
- This tab isn't 100% accurate, but pretty close (i guess), so play along with the song 
get it right

I hope you understand the tab and enjoy it!

Intro-riff:
|-11h13p11------11------11h14p11------11------11h13p11------11-----11h14p11------11h14p11------|
|--0-------12p0--0-12p0--0-------12p0--0-12p0-0--------12p0--0-12p0-0-------12p0----------12p0-|
|----------------------------------------------------------------------------------------------|
|----------------------------------------------------------------------------------------------|x8
|----------------------------------------------------------------------------------------------|
|----------------------------------------------------------------------------------------------|

Riff 2
|-13/17--17--17--17--17-17--17--17--17--17-17--17--17--17--17--|
|-12/16--16--16--16--16-16--16--16--16--16-16--16--16--16--16--|
|-----0---0---0--14--13-13---0---0--14--13-13---0---0---0---0--|
|-----0---0---0---0---0--0---0---0---0---0--0---0---0---0---0--|
|--------------------------------------------------------------|
|--------------------------------------------------------------|

Riff 3
|------------------------------7|--|---------------------|
|--------------------------7----|--|---------------------|
|----------------------7--------|--|---------------------|
|------------------7------------|x4|-------------------9-|
|--------------7----------------|--|---------------9-----|
|-0h5p0-0h5--5---5---5---5---5--|--|--0h7p0-0h7--7---7---|

Riff 3 cont.         1.                  2.
|-----------|-----------------|---------------------|
|-----------|-----------------|---------------------|
|-----------|-------------11--|-------------11------|
|-----------|--------12-------|--------12--------12-|
|-----------|---12------------|---12----------------|
|-----------|---12------------|---12----------------|
|-0h9p0-0h9-|-9----9----9-----|-9----9----9----9----|
x2

Intro riff
|-11h13p11------11------11h14p11------11------11h13p11------11-----11h14p11------11h14p11------|
|--0-------12p0--0-12p0--0-------12p0--0-12p0-0--------12p0--0-12p0-0-------12p0----------12p0-|
|----------------------------------------------------------------------------------------------|
|----------------------------------------------------------------------------------------------|
|----------------------------------------------------------------------------------------------|
|----------------------------------------------------------------------------------------------|
x4

cont.
|-13/17--|
|-12/16--|
|-----0--|
|-----0--|
|--------|
|--------|

Riff 4
|--------------------------------------------|
|------16--16-----16--16----16--16----16--16-|
|--------------------------------------------|
|-----16--16-----16--16----16--16----16--16--|
|--------------------------------------------|
|-0h9--9--9--0h9--9--9-0h9--9--9-0h9--9--9---|

Riff 5
|------------------|
|------------------|
|-9---9---9------9-|
|------------------|
|-----------555555-|
|---6---6--(7)---7-|

Riff 6
|--------------------------------------------|
|-----9----8-----9--8--------9----8----------|
|--------------------------------------------|
|-----9----8-----9--8--------9----8---Riff 5-|x4
|----5----5-----5--5----5---5----5-----------|
|-0h2---0h2--0h2-----0h2-0h2--0h2------------|

Riff 7
|-----------------------------------|
|------9------------------------11--|
|------------9----------11----------|
|------9------------------------11--|
|----5-----5-9----5---5-11----5-----|
|-0h2---0h2----0h2-0h2-----0h2------|

Riff 8
|-------------------------|
|-------5---0-------------|
|---7-7-------7-7-7-7-7-7-|
|---------6---6-6-6-6-6-6-| x6
|-------------5-5-5-5-5-5-|
|-6-----------------------|

Riff 9
|-----------------------------------|
|-----------------------------------|
|-------7-7-7-7-7-7---------7-7-7-7-|
|-----------------------------------|
|-----------------------------------|
|-5--6--------------6-6-6-6---------|

Riff 3.1                                                          1.                  2.
|--------------------7|---------------------||-----------|----------------|---------------------|
|----------------7----|---------------------||-----------|----------------|---------------------|
|------------7--------|---------------------||-----------|-------------11-|-------------11------|
|--------7------------|-------------------9-||-----------|--------12------|--------12--------12-|
|----7----------------|---------------9-----||-----------|---12-----------|---12----------------|
|-5----5---5---5---5--|--0h7p0-0h7--7---7---||-0h9p0-0h9-|-9----9----9----|-9----9----9----9----|
x2

Riff 3.2
|------------------------------7|--|----------------------------------------|
|--------------------------7----|--|----------------------------------------|
|----------------------7--------|--|---------------------------------11-11--|
|------------------7------------|x4|-------------------9--------------x--x--|
|--------------7----------------|--|---------------9------------------x--x--|
|-0h5p0-0h5--5---5---5---5---5--|--|--0h7p0-0h7--7---7----0h9p0-0h9---9--9--|

Intro riff: first time all notes muted
|-11h13p11------11------11h14p11------11------11h13p11------11-----11h14p11------11h14p11------|
|--0-------12p0--0-12p0--0-------12p0--0-12p0-0--------12p0--0-12p0-0-------12p0----------12p0-|
|----------------------------------------------------------------------------------------------|
|----------------------------------------------------------------------------------------------|x5
|----------------------------------------------------------------------------------------------|
|----------------------------------------------------------------------------------------------|

End riff
|-13p11--15p13--13p11--15p13--13p11--15p13--13p11--15p13--15p13----------11--|
|--0------0------0------0------0------0------0------0------0--------------0--|
|----------------------------------------------------------------------------|
|----------------------------------------------------------------------------|
|----------------------------------------------------------------------------|
|----------------------------------------------------------------------------|
Suggest correction
comments
print report bad tab
1 comment total.
0 reply
FacedJared 37 wrote on January 30 2011, 12:27 am

right on dudde

guest
You may want to rate the tab now too:
select rating
Please do not post tabs as comments. Select "correction" instead!