Oops, an error
Loading. Please wait.

2012 And Countless Tab

7 views 3 this week
no commentswrite comment
1 2 3 4 5
3 more votes to show rating
add to favorites
launch autoscroll
font size
0
reset
how to read this tab
guitar tuner
Autoscroll
slow
fast
+/-
esc
set tempo
stop
Help us to improve Ultimate-Guitar.com Take our survey!
×
Author
Difficulty
intermediate
About this tab version
Cool little tune off There's No 666 in Outer Space. Tabbed the Bass and Guitar parts together, because I can't quite tell if that's what it is, if it's two different instruments, or if it's a bass synth with guitar accompaniment. Was this info helpful? Yes No
Q    Q    Q    E  S S      S S S S S S S S S S S S S S S S  
e|------------------------||-----------------------------------|
B|------------------------||-----------------------------------|
G|------------------------||*------------------------------4-4-|
D|------------------------||*--6-6-----6-6-----6-6-------------|
A|------------------------||-----------------------------------|
E|--------------------0-0-||-------4-4-----4-4-----4-4-5-5-----|


    S S S S S S S S S S S S S S S S    S S S S S S S S S S S S S S S S  
e|----------------------------------|----------------------------------|
B|----------------------------------|----------------------------------|
G|------4-4-----5-5-----5-5-----7-7-|--------------------------7-7-----|
D|----------------------------------|--6-6-------------6-6---------6-6-|
A|----------------------------------|------2-2-------------------------|
E|--5-5-----5-5-----5-5-----5-5-----|----------4-4-0-0-----4-4---------|


    S S S S S S S S S S S S S S S S S S      Repeat until in Outer Space     
e|---------------------------------------||----||
B|---------------------------------------||----||
G|--------------------------------------*||----||
D|--------------------------------------*||----||
A|--2-2---------3-3---------3-3----------||----||
E|------4-4-0-0-----4-4-5-5-----4-4-0-0--||----||


Duration Legend
---------------
W - whole
H - half
Q - quarter
E - 8th
S - 16th
Suggest correction
Give kudos to tab author, rate the tab!
1 2 3 4 5
comments
print report bad tab
guest
You may want to rate the tab now too:
select rating
Wanna post a correction for this tab? Suggest correction