Oops, an error
Loading. Please wait.

Been A Long Time Cousin Tab

2,858 views 9 this week
no commentswrite comment
1 2 3 4 5
please rate
add to favorites
launch autoscroll
font size
0
reset
how to read this tab
guitar tuner
Tab Pro tools
  • play this tab
  • loop segment
  • change instrument
  • show fretboard
  • metronome
×
Best way to learn
"Been A Long Time Cousin"
Autoscroll
slow
fast
+/-
esc
set tempo
stop
Contributor
Been A Long Time Cousin
by Spencer Seim and Zach Hill
tabbed by JA


Take a deep breath and stretch those fingers.

"A"
e-------------------------------------|
b-------------------------------------|
g--13b---13b--13b--13b--13b--13r--13r-|
d-------------------------------------|
a--11----11---11---11---11---11---11--|
E-0----0----0----0----0----0----0-----|
  Bend the G string up a full step by the fifth strike.


"B"
e-----------------------------------------------|
b-----7---------------------7-------------------|
g-4---4-----------------4---4-------------------|
d-5---5-----------------5---5-------------------|
a-----------------------------------------------|
E-3---3-3-3-3-4-3-4-3-4-3---3-3-3-3-4-3-4-3-4-3-|

"C" (mad sliding part)
e---------------------|
b---------------------|
g------7\--\4/--/7----|
d---------------------|
a---------------------|
E-(3)/6--\3--/6---/6--|
  Slide up to 6, hit 7 and slide down, etc.

"D" (trem n dischord part)
e---------------------------------|
b---------------------------------|
g--7---7--------------------------|
d--8---8--------------------------|
a---------------------------------|
E-6---6---6-6-6-6-6-6-7-7-9-9-7-7-|


e-------------------------------|
b-------------------------------|
g-10----11----------------------|
d-11----12----------------------|
a-------------------9---------9-|
E-9---10---10-10-10----10-10----|


"E" (part C without the sliding)
e------------- ---------------------|
b------------- ---------------------|
g-7--4--7---7- -7---7---------------|
d------------- -8---8---------------|
a------------- -------------5-----5-|
E-6--3--6---6- -6-6-6-6-6-6---6-6---|
 Part ends with^                   ^


"F"
e---------------------------------------------------------------------------------|
b---------------------------------------------------------------------------------|
g-12------12---------------------------------------12-----------------------------|
d---------------------12----10----12----10------13---------12----10----12----10---|
a-----13-----------10----11----10----11------13---------10----11----10----11------|
E-0-0-0-0-0-0--0-0--0-----0-----0-----0-----0-0-0-0-0-0--0-----0-----0-----0------|
  Haven't worked out the low E part to the fullest yet....

"G" (segue into part H)
e-----------------------  ----------------|
b-----------------------  ----------------|
g-----------------------  -14--12--11--11-|
d--------11----------11-  -11----------12-|
a-0h12p0----0-0h12p0----  -0-----------0--|
E-----------------------  ----------------|
                      x4 followed by this

"H" (descending notes)
e-----------------------------------------------------------------------------------|
b-----------------------------------------------------------------------------------|
g-14--12--11--14--12--11--11---14--12--11--14--12--11---14--12--11--14--11---14--11-|
d-11--11--11--11--11--11--12---11--11--11--11--11--12---11--11--11--11--12---11--12-|
a-0---0---0---0---0---0---0----0---0---0---0---0---0----0---0---0---0---0----0---0--|
E-----------------------------------------------------------------------------------|

"I"
e--------------------------------------------------------------------------------------|
b--------------------------------------------------------------------------------------|
g-14--12--11--14--12--11--11------14--12--11--14--12--11---14--12--11--14--11---14--11-|
d-11--11--11--11--11--11--12------11--11--11--11--11--12---11--11--11--11--12---11--12-|
a-0---0---0---0---0---0---0--0-0--0---0---0---0---0---0----0---0---0---0---0----0---0--|
E--------------------------------------------------------------------------------------|
  Mute all strings


"J"
e----------------------------------------------------------------|
b----------------------------------------------------------------|
g------------------------------13b-------------------------------|
d-11-11-11-11-11-11-11-11-11-11----11-11-11-11-11-11-11-11-11-11-|
a-0--0--0--0--0--0--0--0--0--0-----0--0--0--0--0--0--0--0--0--0--|
E----------------------------------------------------------------|
  Play this, then back to part A and you're done.
comments
We did not receive enough feedback on this tab! Please rate:
print report bad tab
1 2 3 4 5
I want to post or [tab]
guest
You may want to rate the tab now too:
select rating
Please do not post tabs as comments. Select "correction" instead!