Oops, an error
Loading. Please wait.

Biblical Violence Tab

version 2
version 2

Whole song

2,946 views 18 this week
no commentswrite comment
1 2 3 4 5
x 4
add to favorites
launch autoscroll
font size
0
reset
how to read this tab
guitar tuner
Autoscroll
slow
fast
+/-
esc
set tempo
stop
Help us to improve Ultimate-Guitar.com Take our survey!
×
Author
Band: HELLA
Song: Biblical Violence
Album: Hold Your Horse Is
Tabbed by: Henrik Iversen

Tuning: DBDGBe

>>> = let ring

|--------------------| |---------|
|--------------------| |---------|
|----9>>>>>>>-99>>>>-| |-11>>>>>-|
|----x--------777----| |--x>>>>>-|
|-7--7--777888---888-| |--7>>>>>-|
|-0>>>>>>>>>>>>>>>>>-| |--0>>>>>-|

Tip: play the open string with index finger over the 12th fret, 
and use the the middle finger and ring ringer to tap the 12 fret notes
|--------------------| |---------------------------...----|
|-------12-----------| |--------12-11--------12-11-...-12-|
|--------------------| |---------------------------...----|
|-------12-----------| |-------12-11--------12-11--...-12-|
|-----7--------7-7-7-| |-----7---7---7----7---7----...----|
|-0h5------0h5-------| |-0h5----------0h5----------...----|

|---------| |-----------------------|----------|--------------|
|---------| |-----------------------|----------|--------------|
|---------| |-----------------------|----------|--------------|
|---------| |-------9---------7-----|----------|--------------|
|-2222222-| |-9-9-9-9-9-9-7-7-7-7-7-|-2-2--2-2-|-14-14--15-15-|
|-0000000-| |-0-0-0-0-0-0-0-0-0-0-0-|-0-0--0-0-|--0--0---0--0-|

|----------------------------------------|
|----------------------------------------|
|-9----------------------9-------------9-|
|-x----------------------x-------------x-|
|-7------0h5-----0h5/7---7-----0h5/7---7-|
|-0--0h5-----0h5-------0-0-0h5-------0-0-|

Play along to record to hear the acurate way to play the right hand notes. 
|--------------------------------------------|
|--7-7-------7-7-------9-9-------7-7---------|
|-------------------------------------x2-----| right hand notes
|--7--7------7--7------9--9------7--7--------|
|--------------------------------------------|
|-12---12---12---12---12---12---12---12---11-| left hand notes

the second time the riff ends a little bit earlier..
|----------------------------------------|
|---------------7---------------7--------|
|-7-7-----7-7-------7-----7-7------x2----|
|---------------7---------------7--------|
|-7--7----7--7-------7----7--7-----------|
|-9---9---9---9---9---9---9---9---9---11-|

|-------------| |-------------------|
|-------------| |-------------------|
|-------------| |-------------------|
|-------------| |-------9---------7-|
|-/1414--1515-| |-9-9-9-9-9-9-7-7-7-|
|---0-0---0-0-| |-0-0-0-0-0-0-0-0-0-|
Suggest correction
comments
print report bad tab
guest
You may want to rate the tab now too:
select rating
Wanna post a correction for this tab? Suggest correction