Oops, an error
Loading. Please wait.

Brown Metal Tab

version 2
version 2

Whole song

335 views 3 this week
no commentswrite comment
1 2 3 4 5
please rate
add to favorites
launch autoscroll
font size
0
reset
how to read this tab
guitar tuner
Autoscroll
slow
fast
+/-
esc
set tempo
stop
Help us to improve Ultimate-Guitar.com Take our survey!
×
Author
Band: HELLA
Song: Brown Metal
Album: Hold Your Horse Is
Tabbed by: Henrik Iversen

Standard tuning

"...." = etc.


|-------------------------------------------------|
|-------------------------------------------------|
|--------------------------------1414141414141414-| sometimes 13
|-121212121212121212121212121212------------------|
|-------------------------------------------------|
|-------------------------------------------------|

Tremslide between these two riffs.

                                1.       2.
|---------------------------|--------|--------|
|---------------------------|--------|--------|
|---------------------------|-2----2-|-1----1-|
|-00000000000000000000000000|---00---|---00---|
|---------------------------|--------|--------|
|---------------------------|--------|--------|

|-----------------------------|
|-----------------------------|
|-----------------------------|
|-0-12121212-0-12121212-0....-|
|-----------------------------|
|-----------------------------|

|------------------------------------|
|--------*beep,beep,beep,beep,beep..-|
|------------------------------------|
|------------------------------------|
|-0-let ring-------------------------|
|------------------------------------|

|----------------------|
|----------------------|
|----------------------|
|----------------------|
|----------------------|
|-1--1--1--1--1--1....-|
|----------------------|

|-------------------------------------------------------------|
|-------------------------------------------------------------|
|-------------------------------------------------------------|
|-0-0-0-0--0--0--0---0---0-----0-----0------0-....-0-----0...-|
|--------------------------------------------------0-----0...-|
|--------------------------------------------------0-----0...-|
Suggest correction
Give kudos to tab author, rate the tab!
1 2 3 4 5
comments
print report bad tab
guest
You may want to rate the tab now too:
select rating
Please do not post tabs as comments. Select "correction" instead!