Oops, an error
Loading. Please wait.

City Folk Sitting Sitting Tab

version 1
version 1

Whole song

902 views 3 this week
no commentswrite comment
1 2 3 4 5
please rate
add to favorites
launch autoscroll
font size
0
reset
how to read this tab
guitar tuner
Autoscroll
slow
fast
+/-
esc
set tempo
stop
Help us to improve Ultimate-Guitar.com Take our survey!
×
Author
Hey guys, I've just started trying to tab this one out, so it might be a bit 
rough. If you have any corrections, either email me or comment, or just make your 
own. Its easier to tab with multiple viewpoints, since this is all just by ear.

I'll keep editing it as I figure out more parts.

Listen to the song for the rhythm, this tab is only an outline.


-------------------------------------------------------------------------------
			     City Folk Sitting Sitting - Hella 
-------------------------------------------------------------------------------
Tabbed by: Sliver321123 (Mike D'Anna)
Email:lleadpencill@gmail.com

Tuning : Standard (EADGBe)

Part 1
e|---------------------------------------------------------------------------|
B|---------------------------------------------------------------------------|
G|--------------------------------------------------6----------------------6-|
D|------------------------------------6----------------------------6--6------|		x10
A|-7--7--7--6---4--4--4--4--4--4--4--4--4--4--4--4--4--4--4--4---------------|
E|-0--0--0--0----------------------------------------------------------------|


e|---------------------------------------------------------------------------|
B|---------------------------------------------------------------------------|
G|---------------------------------------------------6-----------------------|
D|--------------------------------6------------------------------------------|
A|-7--7--7--6---4--4--4--4--4--4--4--4--4--4--4--4---4--4--4--4--------------|
E|-0--0--0--0----------------------------------------------------------------|

Part 2
e|---------------------------------------------------------------------------|
B|---------------------------------------------------------------------------|
G|---------------------------6--------------------------------6--------------|
D|------------6-----------------------------6--------------------------------|
A|-4--4--4--4--4--4--4--4--4--4--4--4--4--4--4--4--4--4--4--4-|
E|---------------------------------------------------------------------------|

Part 3
e|---------------------------------------------------------------------------|
B|---------------------------------------------------------------------------|
G|---------------------------------------------------------------------------|	\
D|-----0-----0-----0------0------0--------0--------0-------------------------|		  \
A|-0-----/3-----3-----2------3-------5--------5--------4---------------------|		    \
E|---------------------------------------------------------------------------|		      \
								                              --x3
e|---------------------------------------------------------------------------|		      /
B|---------------------------------------------------------------------------|		    /
G|---------------------------------------------------------------------------|		  /
D|---0h5p0h5p0-------0h5p0---------------------------------------------------|		/
A|---------------------4-------------4---------------------------------------|
E|---------------------------------------------------------------------------|

e|---------------------------------------------------------------------------|
B|---------------------------------------------------------------------------|
G|---------------------------------------------------------------------------|
D|-----0-----0-----0------0------0--------0--------0---0---------------------|
A|-0-----/3-----3-----2------3-------5--------5--------4---------------------|
E|---------------------------------------------------------------------------|

e|---------------------------------------------------------------------------|
B|---------------------------------------------------------------------------|
G|---------------------------------------------------------------------------|
D|------0-------0------0----0------------------------------------------------|		x4
A|--0-----/5-------5--------4------------------------------------------------|
E|---------------------------------------------------------------------------|

Part 4
e|---------------------------------------------------------------------------|
B|---------------------------------------------------------------------------|
G|---5----5---------6----6--------7----7-------------------------------------|
D|---------------------------------------------------------------------------|
A|--4----4---------5----5--------6----6--------------------------------------|
E|---------------------------------------------------------------------------|

Part 5
e|---------------------------------------------------------------------------|
B|---------------------------------------------------------------------------|
G|------h6p0h6p0h6p0h6-----h6---h6-------------------6-----------------------|
D|----0----h6p0h6p0h6p0--h6---h6---------------------6-----------------------|
A|---------------------------------------------------4-----------------------|
E|---------------------------------------------------------------------------|

I'll fill in the rest soon.
Suggest correction
Give kudos to tab author, rate the tab!
1 2 3 4 5
comments
print report bad tab
guest
You may want to rate the tab now too:
select rating
Please do not post tabs as comments. Select "correction" instead!