Oops, an error
Loading. Please wait.

City Folk Sitting Sitting Tab

version 2
version 2

Whole song

372 views 1 this week
no commentswrite comment
1 2 3 4 5
please rate
add to favorites
launch autoscroll
font size
0
reset
how to read this tab
guitar tuner
Tab Pro tools
  • play this tab
  • loop segment
  • change instrument
  • show fretboard
  • metronome
×
Best way to learn
"City Folk Sitting Sitting"
Autoscroll
slow
fast
+/-
esc
set tempo
stop
Contributor
Band: HELLA
Song: City Folk Sitting, Sitting
Album: Hold Your Horse Is
Tabbed by: Henrik Iversen

Tuning: standard

           
|---------------------------------------------|
|---------------------------------------------|
|-5-5-5-5-----------------6--------------6----|
|-x-x-x-x--------6--------x--6-----------x----|
|-8-8-6-7--4-4-4-4--4-4-4-4--4-4-4-4-4-4-4----|
|-0-0-0-0--0-0-0-0--0-0-0-0--0-0-0-0-0-0-0--0-|


            p.m->   
|---------|---------------------------------------|
|---------|---------------------------------------|
|-5-5-5-5-|-------------------6-------------------|
|-x-x-x-x-|-------6-----------x-----------6--etc.-|
|-8-8-6-7-|-4-4-4-4-4-4-4-4-4-4-4-4-4-4-4-4-------|
|-0-0-0-0-|-0-0-0-0-0-0-0-0-0-0-0-0-0-0-0-0-------|

|---------------------------------------------------------------------|
|---------------------------------------------------------------------|
|---------------------------------------------------------------------|
|---------------------------------------------------------------------|
|-------0---0---0---0----0----0---0---0h10---0h10---0---0h10---0h10---|
|-5/8-8---8---7---7---10---10---9---9------9------9---9------9------5-|

                                                        last time
|------------------------------------------------------|---------|
|------------------------------------------------------|--0------|
|------------------------------------------------------|--0------|
|------------------------------------------------------|--0------|
|-------0---0---0---0----0----0------------0----0------|--0------|
|-5/8-8---8---7---7---10---10---9---5-5/10---10---9----|-(9)-----|

|------------------------------------|
|------------------------------------|
|------------------------------------|
|-------10-----------12-----------13-|
|------------------------------------|
|-9-9-9-----11-11-11-----12-12-12----|

Soooomething like this
|-------------------------------------|
|-------------------------------------|
|-----------------------------------6-|
|-----5-------5-------5------7-7-7--7-|
|---4---4---4---4---4---4----6-6-6--0-|
|-5-------5-------5-------5--7-7-7----|

Main stuff he plays around with in the "Improv part"
|---------------------------------|
|---------------------------------|
|-6--------18-18--------6--9-7-6--|
|-7--2--1--19-18----7-9-7--7-7-7--|
|-0--0--0---0h18--0-0-0-0--0-0-0--|
|---------------------------------|

End 
|----------------|
|----------------|
|----------------|
|---7---7---7-...|  
|-0---0---0------|
|----------------|

then (muted part is the same)
|---------------------------------------------------------|
|---------------------------------10---9------------------|
|-6-6-6-9--6-9--6666-9-6------6---------------------------|
|-7-7-7-7--7-7--7777-----7--6---6----6------6---6---6---6-|
|-0-0-0-0--0-0--0000--------------------------------------|
|-----------------------------------------0---0---0---0---|

|-----------------------|
|-----------------------|
|-6-9-6-6-9-6-6-9-6-6-9-|
|-7-7-7-7-7-7-7-7-7-7-7-|
|-----------------------|
|-----------------------|


End part

                                                        last time
|------------------------------------------------------|-------------|
|------------------------------------------------------|--0--0--0--0-|
|------------------------------------------------------|--0--0--0--0-|
|------------------------------------------------------|--0--0--0--0-|
|-------0---0---0---0----0----0------------0----0------|--0--0--0--0-|
|-5/8-8---8---7---7---10---10---9---5-5/10---10---9----|-10-10-10-10-|


I think that should cover it..
comments
We did not receive enough feedback on this tab! Please rate:
print report bad tab
1 2 3 4 5
I want to post or [tab]
guest
You may want to rate the tab now too:
select rating
Please do not post tabs as comments. Select "correction" instead!