Oops, an error
Loading. Please wait.

Republic Of Rough And Ready Tab

909 views 1 this week
no commentswrite comment
1 2 3 4 5
please rate
add to favorites
launch autoscroll
font size
0
reset
how to read this tab
guitar tuner
Tab Pro tools
  • play this tab
  • loop segment
  • change instrument
  • show fretboard
  • metronome
×
Best way to learn
"Republic Of Rough And Ready"
Autoscroll
slow
fast
+/-
esc
set tempo
stop
Contributor
Band: HELLA
Song: Republic of Rough and Ready
Album: Hold Your Horse Is
Tabbed by: Henrik Iversen

Tuning: F#GDGBe



hbh>>>>r  = Half bend, Hold >>> Release


Intro riff
|----------------------------------------------------------|
|----------------------------------------------------------|
|---------------------------7-7-----------------11hbh>>>>r-|
|-----------------7-7-------x-x-------7-7--------9-------9-|
|----h7-7-7----h7-7-7----h7-7-7----h7-7-7--------0-------0-|
|-0h5---5-5-0h5---5-5-0h5---5-5-0h5---5-5--0-0-------------|

Riff 2
|-----------------------------------------------|
|-----------------------------------------------|
|-11hbh>>>>r---11---11---11---11---11---11---11-|
|--9-------9----9----9----9----9----9----9----9-| x5
|--0-------0------------------------------------|
|------------11---11---11---11---10---10---10---|

Riff 2.1
|--------------------------------------------------------|
|--------------------------------------------------------|
|-11hbh>>>>--11--11--11--11--11--11--11--11--11--11--11--|
|--9---------11--11--11--11--11--11--11--11--11--11--11--|
|--0----------0---0---0---0---0---0---0---0---0---0---0--|
|------------12p012p012p012p012p012p012p012p012p012p012--|

Riff 3
|------------------------------------------------------------------|
|------------------------------------------------------------------|
|------------------------------------------11--11--11--11--11--11--|
|--------10------10--9---------10------10- 11--11--11--11--11--11--| x5
|-0-0-0-0-0-0-0-0-0--0--0-0-0-0-0-0-0-0-0---0---0---0---0---0---0--|
|------------------------------------------12p012p012p012p012p012--|

Riff 3.1
|-----------------------------------------|
|-----------------------------------------|
|-----------------------------------------|
|--------10------10--9---------10------10-|
|-0-0-0-0-0-0-0-0-0--0--0-0-0-0-0-0-0-0-0-|
|-----------------------------------------|

Riff 2
|-----------------------------------------------|
|-----------------------------------------------|
|-11hbh>>>>r---11---11---11---11---11---11---11-|
|--9-------9----9----9----9----9----9----9----9-| x4
|--0-------0------------------------------------|
|------------11---11---11---11---10---10---10---|

Drum part

Riff 4
|-------------------------------------------------------------------|
|--------------------------16------14-------------------------------|
|----------14------------------------------16--------------17-------|
|-------------------------------------------------------------------|
|-0h5p0h5p0h5p0h5p0h5p0h5p0h5p0h5p0h5p0h5p0h5p0h5p0h5p0h5p0h5p0h5p0-|
|-------------------------------------------------------------------|

Riff 4 cont.
|--------------------------------------------------------------|
|--------------------------16------14--------------------------|
|----------14------------------------------16--------------17--|
|--------------------------------------------------------------|
|-h5p0h5p0h5p0h5p0h5p0h5p0h5p0h5p0h5p0h5p0h5p0h5p0h5p0h5p0h5p0-|
|--------------------------------------------------------------|

Shorter intro riff (S.I.R)
|------------------------------------------|
|------------------------------------------|
|---------------------------7-7------------|
|-----------------7-7-------x-x-------7-7--| x2
|----h7-7-7----h7-7-7----h7-7-7----h7-7-7--|
|-0h5---5-5-0h5---5-5-0h5---5-5-0h5---5-5--|

Riff 4

S.I.R 

Riff 4

S.I.R x1

Intro riff x1

Riff 5.1
|------------------------------------------------------------|
|------------------------------------------------------------|
|--11--11--11--11--11--11------------------------------------|
|--11--11--11--11--11--11----------------------10-----9-9--9-| x4
|---0---0---0---0---0---0-12p0-12p-012p0-0-0-0--0-0-0-0-0--0-| 
|--12p012p012p012p012p012------------------------------------|

Riff 6.1
|-------------------------------|
|-------------------------------|
|-------------------------------|
|---7-----7/9\(7)-7-----7-7/9---| x2
|-5---0-5--/7--5----0-5----/7-0-|
|-------------------------------|

Riff 6.2
|-------------------------------------------|
|-------------------------------------------|
|---9---7------------------9---7------------|
|-5---6-----------10--9--5---6-----------10-|
|---------0-0-0-0--0--0----------0-0-0-0--0-|
|-------------------------------------------|

Riff 6.1 & 6.2 x3

Riff 5.2
|--------------------------------------------------|
|--------------------------------------------------|
|--11--11--11--11--11--11--------------------------|
|--11--11--11--11--11--11------------10-----9-9--9-| x2
|---0---0---0---0---0---0--0-0-0-0-0--0-0-0-0-0--0-|
|--12p012p012p012p012p012--------------------------|

Riff 5.2.1
|-----------------------------------------------------------|
|-----------------------------------------------------------|
|--11--11--11--11--11--11-----------------------------------|
|--11--11--11--11--11--11-----------10-----9-9--9-9-9-9-9-9-|
|---0---0---0---0---0---0--0-0-0-0-0-0-0-0-0-0--0-0-0-0-0-0-|
|--12p012p012p012p012p012-----------------------------------|

Riff 5.2 x1 
Riff 5.2.1 x1

riff 7
|----------------7----7----7----7--|
|----------------------------------|
|---7/10----7h10--------10---10----|
|-9------9---------0-let-ring------| x 10
|-0-let-ring-----------------------|
|----------------------------------|

End
|--------------|
|--------------|
|-7------------|
|-0------------|
|-0------------|
|--------------|


comments
We did not receive enough feedback on this tab! Please rate:
print report bad tab
1 2 3 4 5
I want to post or [tab]
guest
You may want to rate the tab now too:
select rating
Please do not post tabs as comments. Select "correction" instead!