Oops, an error
Loading. Please wait.

Republic Of Rough N Ready Tab

version 2
version 2

Whole song

Interactive

3,550 views 6 this week
no commentswrite comment
1 2 3 4 5
please rate
add to favorites
launch autoscroll
font size
0
reset
how to read this tab
guitar tuner
Autoscroll
slow
fast
+/-
esc
set tempo
stop
Help us to improve Ultimate-Guitar.com Take our survey!
×
Author
Republic of Rough And Ready
by Spencer Seim and Zach Hill
tab by jimsan

Thanks to JA for being the first to tackle Hella tabs, I never would have tried otherwise. I've tried to fix 
some of the mistakes in his tab, as well as well as lay out the parts in order. I've used the same labels as 
JA for the riffs, but added numbers, like B2 and C2, for riffs that are variations of the original riff. 

Tuning Alert!
low to high: GADGBE
Tune your low E up a step and a half (3 frets).

"A"
e--------------------------------------------------------------------|
b--------------------------------------------------------------------|
g--------------------------------7--7--------------------11b------11-|
d-------0--0--------7--7-------------------7--7----------------------|
a----h5-5--5-----h5-5--5------h5-5--5---h5-5--5--x-(12)---9--------9-|
G-0h4---------0h4---------0h4--------0h4---------x-(12)---0--------0-|

                                           


"B"
e-----------------------------------------------|
b-----------------------------------------------|
g-11b-------11--11--11--11--11--11--11--11------|X6
d-----------------------------------------------|
a-9----------9---9---9---9---9---9---9---9------|
G-0-----------12--11--11--11-11/10-10-10--10----|
Not 100 percent on the amount of notes,
but it's close, and just make sure alternate the 
notes between the F# octave and the notes on the 
G string        

"B2"

e-------|
b-------|
g---11b-|
d-------|
a----9--|
G----0--|

"C"
e--------------------------------------------------------------------------------------------------|
b--------------------------------------------------------------------------------------------------|
g--------------------------------------------------------------------------------------------------|X6
d11-11-11-11-11-11-11-11-11-11-11-11------------------------------9--------------------------------|
a10-10-10-10-10-10-10-10-10-10-10-10-10101010151515151010101015--10--10101010151515151010101015----|
G---------------------------------------0---0---0---0---0---0-----0----0---0---0---0---0---0-------|
Not positive about the rhythm of the open G notes, just keep them staccato, and don't play them
so much that it blends with the notes on the A string. They should sound separate and crisp, not
like a chord. 


"B"
e-----------------------------------------------|
b-----------------------------------------------|
g-11b-------11--11--11--11--11--11--11--11------|X4
d-----------------------------------------------|
a-9----------9---9---9---9---9---9---9---9------|
G-0-----------12--11--11--11-11/10-10-10--10----|

Drum break
        

"D"
e----------------------------------------------------------------------------------------------------------------------------|
b----------------------------------------------------------------------------------------------------------------------------|
g----------------------16------14-----------------------------------------------------16------14-----------------------------|
d------14------------------------------16--------------17--------------14-----------------------------16-------------17------|
a----------------------------------------------------------------------------------------------------------------------------|
G5-p0h5p0h5p0h5p0h5p0h5p0h5p0h5p0h5p0h5p0h5p0h5p0h5p0h5p0h5p0h5p0h5p0h5p0h5p0h50h5p0h5p0h5p0h5p0h5p0h5p0h5p0h50h5p0h5p0h5p0h5|

e-----------------------------------------------------------------------------------------------|
b-----------------------------------------------------------------------------------------------|
g--------------------------------7--7-------------------------------------------7--7------------| repeat section D 3 times
d-------0--0--------7--7-------------------7--7--------0--0--------7--7-------------------7--7--|
a----h5-5--5-----h5-5--5------h5-5--5---h5-5--5-----h5-5--5-----h5-5--5------h5-5--5---h5-5--5--|
G-0h4---------0h4---------0h4--------0h4---------0h4---------0h4---------0h4--------0h4---------|



"B3"

e-------------|
b-------------|
g---------11b-|
d-------------|
ax-(12)----9--|
Gx-(12)----0--|



"C2"
e----------------------------------------------------------|
b----------------------------------------------------------|
g----------------------------------------------------------|X4
d11-11-11-11-11-11-11-11-11-11-11-11-----------------9---9-|
a10-10-10-10-10-10-10-10-10-10-10-10-10101510101510-10--10-|
G-----------------------------------------0---0---0--0---0-|

"E"
e----------------------------------------------------------------------------------------------------------------|
b----------------------------------------------------------------------------------------------------------------|
g----------------------------------------------------------------------------------------------------------------|X3
d---7-------7/9----7-------7/9-------7-------7/9----7-------7/9--------14----12------10--9-----14----12------10--|
a-------------------------------------------------------------------10----11---------10-10--10----11---------10--|
G-5---0-0-5-5/7--5---0-0-5-5/7--0--5---0-0-5-5/7--5---0-0-5-5/7--0--------------0000--0--0--------------0000--0--|

"C3"
e----------------------------------------------------------|
b----------------------------------------------------------|
g----------------------------------------------------------|
d11-11-11-11-11-11-11-11-11-11-11-11-----------------9---9-|X2
a10-10-10-10-10-10-10-10-10-10-10-10-10101510101510-10--10-|
G-----------------------------------------0---0---0--0---0-|

e-------------------------------------------------------------------------------|
b-------------------------------------------------------------------------------|
g-------------------------------------------------------------------------------|
d11-11-11-11-11-11-11-11-11-11-11-11-----------------9---9---9---9---9---9---9--|
a10-10-10-10-10-10-10-10-10-10-10-10-10101510101510-10--10--10--10--10--10--10--|
G-----------------------------------------0---0---0--0---0---0---0---0---0---0--|

e----------------------------------------------------------|
b----------------------------------------------------------|
g----------------------------------------------------------|
d11-11-11-11-11-11-11-11-11-11-11-11-----------------9---9-|
a10-10-10-10-10-10-10-10-10-10-10-10-10101510101510-10--10-|
G-----------------------------------------0---0---0--0---0-|

e-------------------------------------------------------------------------------|
b-------------------------------------------------------------------------------|
g-------------------------------------------------------------------------------|
d11-11-11-11-11-11-11-11-11-11-11-11-----------------9---9---9---9---9---9---9--|
a10-10-10-10-10-10-10-10-10-10-10-10-10101510101510-10--10--10--10--10--10--10--|
G-----------------------------------------0---0---0--0---0---0---0---0---0---0--|


"F"
e-----------------------------------------------|
b----------------0------10h12----12----12----12-|
g-----0-------------10--------10----10----10----|X10
d-12------12/15----------------0let-ring--------|
a--x--------------------------------------------|
G--0let-ring------------------------------------|

e---------------|
b---------------|
g--0------------|
d-12------------|
a--x------------|
G--0let-ring----|
Suggest correction
Give kudos to tab author, rate the tab!
1 2 3 4 5
comments
print report bad tab
guest
You may want to rate the tab now too:
select rating
Please do not post tabs as comments. Select "correction" instead!