Oops, an error
Loading. Please wait.

The Things That People Do When They Think No Ones Looking Tab

1,399 views 1 this week
no commentswrite comment
1 2 3 4 5
please rate
add to favorites
launch autoscroll
font size
0
reset
how to read this tab
guitar tuner
Tab Pro tools
  • play this tab
  • loop segment
  • change instrument
  • show fretboard
  • metronome
Autoscroll
slow
fast
+/-
esc
set tempo
stop
Contributor
Difficulty
Tuning
intermediate
C# G# C# F# A# D#
----------------------------------------------------------------------------
      The Things That People Do When They Think No Ones Looking - Hella
----------------------------------------------------------------------------
Tabbed by: tmv91
Email: ggaltney@yahoo.com

Tuning: Drop D

 Guitar 1 - Riff 1- Let notes ring            x5
e|-------------------------------0---------------|
B|-------5------5------5-------------------------|
G|---5------5------5------5-5\2------------------|
D|-----7--------------------7\4------------------|
A|-0----------0------0------0------0-------------|
E|-----------------------------------4---4-4-4-4-|

e|-------------------------------0---------------|
B|-------5-----7----7-5h7p5----------------------|
G|--(5)-----5-----5---------5\2------------------|
D|----(7)-------------------7\4------------------|
A|-0------------------------0------0-------------|
E|-----------------------------------4---4-4-4-4-|

 Guitar 2 - Set one pickup to zero and flick the pickup switch to get
 that sound in the song - Riff 2                                        x8
e|------|-----------------------------------------------------------------|
B|-7~---|-----------------------------------------------------------------|
G|-6~---|-11p9----9-11p9----11-12-11-9h11----9----------------------------|
D|-4~---|------10--------10---------------10------------------------------|
A|------|--------------------------------------9b10r9-9h10-9h10-9h10-9h10-|
E|------|-----------------------------------------------------------------|

 Chorus - x4
e|---------------------------------------------------------|
B|---------------------------------------------------------|
G|---------------------------------------------------------|
D|-14-12-14-12--12-14-12-14-12-12-14-12-14-12--12-14-12-14-|
A|-14-12-14-12--12-14-12-14-12-12-14-12-14-12--12-14-12-14-|
E|-14-12-14-12--12-14-12-14-12-12-14-12-14-12--12-14-12-14-|
                                  
e|----------------------------------|
B|----------------------------------|
G|------------------12-12--12-11-11-|
D|-10-10--10-7-7--7--x--x---x--x--x-|
A|-10-10--10-7-7--7-10-10--10--9--9-|
E|-10-10--10-7-7--7-----------------|

 Repeat Riff 1 x3
 Repeat Chorus x4
 On last repetition of chorus play this instead of the other ending:
e|--------------------------------------------------|
B|--------------------------------------------------|
G|------------------12-12--12-1111------------------|
D|-10-10--10-7-7--7--x--x---x--x-x-10-10--10-7-7--7-|
A|-10-10--10-7-7--7-10-10--10--9-9-10-10--10-7-7--7-|
E|-10-10--10-7-7--7----------------10-10--10-7-7--7-|

e|----------------------------------|
B|----------------------------------|
G|-12-12-12-11-11-11-12-12-12-11-11-|
D|--x--x--x--x--x--x--x--x--x--x--x-|
A|-10-10-10--9--9--9-10-10-10--9--9-|
E|----------------------------------|

 Guitar 1                                                   x4
e|-------------------------------------------------------------|
B|---3---3---4---4---1---1---3---3--11-11-10-10--7---7---8---8-|
G|-0---0---0---0---0---0---0---0---------------------------0---|
D|---------------------------------0--0--0--0--0---0---0-------|
A|-------------------------------------------------------------|
E|-------------------------------------------------------------|

 Guitar 2                                                   x4
e|-------------------------------------------------------------|
B|-------------------------------------------------------------|
G|-------------------------------------------------------------|
D|-h5~---------------------------\p0~--------------------------|
A|-h5~---------------------------\p0~--------------------------|
E|-------------------------------------------------------------|

 Guitar 1 - x4
e|-------------------------------------------------------------|
B|---3---3---4---4---1---1---3---3--11-11-10-10--7---7---8---8-|
G|-0---0---0---0---0---0---0---0---------------------------0---|
D|---------------------------------0--0--0--0--0---0---0-------|
A|-------------------------------------------------------------|
E|-------------------------------------------------------------|

e|-----------------------------6---------------------------------|
B|---3---3---4---4---7---7---8---8\---11-11-10-10--7---7---8---8-|
G|-0---0---0---0---0---0---0---------------------------------0---|
D|--------------------------------------0--0--0--0---0---0-------|
A|---------------------------------------------------------------|
E|---------------------------------------------------------------|

 Guitar 2 - x8
e|-------------------------------------------------------------------------|
B|-------------------------------------------------------------------------|
G|-------------------------------------------------------------------------|
D|---12--12--13--13--10--12-12---8---8---7---7---4---4---5---5-------------|
A|-------------------------------------------------------------------------|
E|-12--12--13--13--10---9--9---8---8---7---7---4---4---5---5---------------|

On last repetition:
 guitar 1
e|-----------------------------6-----------------------------|
B|---3---3---4---4---7---7---8---8\-11-11-11-11-11-11-11-11--|
G|-0---0---0---0---0---0---0---------------------------------|
D|------------------------------------0--0--0--0--0--0--0--0-|
A|-----------------------------------------------------------|
E|-----------------------------------------------------------|

e|----------------------------------------------------|
B|-10-10-10-10-10-10-10-10-11-11-10-10--7---7---8---8-|
G|--------------------------------------------0-----0-|
D|---0--0--0--0--0--0--0--0--0--0--0--0---0---------0-|
A|----------------------------------------------------|
E|----------------------------------------------------|

 Guitar 2
e|------------------------------------------------------------------|
B|------------------------------------------------------------------|
G|------------------------------------------------------------------|
D|---12--12--13--13--10--10--12--12---8---8---8---8---8---8---8---8-|
A|------------------------------------------------------------------|
E|-12--12--13--13--10--10---9---9---8---8---8---8---8---8---8---8---|
                                                                  *
e|------------------------------------------------------------------|
B|------------------------------------------------------------------|
G|------------------------------------------------------------------|
D|---7---7---7---7---7---7---7---7---8---8---7---7---4---4-----8--8-|
A|-------------------------------------------------------------5--5-|
E|-7---7---7---7---7---7---7---7---8---8---7---7---4---4---5---5--5-|

 Guitar 1*- starts when chord is struck - P.M.
e|----------------------------------|
B|----------------------------------|
G|-------------7----7-9-7---------7-|
D|-7-9-10-9-10---10-------10-9-10---|
A|----------------------------------|
E|----------------------------------|

 Guitar 2 - Pinch Harmonics
e|---------------------------|
B|-5-------5-------5---------|
G|-----5-------5-------5---5-|
D|-----------------------7---|
A|---------------------------|
E|---------------------------|


guitar 1 plays riff 1 again, but it is a little bit different
guitar 2 plays riff 2

repeat chorus x5
repeat chorus x4, end when you hit this chord
e|----|
B|----|
G|----|
D|-10-|
A|-10-|
E|-10-|


| /  slide up
| \  slide down
| h  hammer-on
| p  pull-off
| ~  vibrato
| +  harmonic
| x  Mute note
============================================================================
comments
We did not receive enough feedback on this tab! Please rate:
print report bad tab
1 2 3 4 5
I want to post or [tab]
guest
You may want to rate the tab now too:
select rating
Please do not post tabs as comments. Select "correction" instead!