Oops, an error
Loading. Please wait.

Top Twenty Notes Tab

383 views 1 this week
no commentswrite comment
1 2 3 4 5
3 more votes to show rating
add to favorites
launch autoscroll
font size
0
reset
how to read this tab
guitar tuner
Autoscroll
slow
fast
+/-
esc
set tempo
stop
Help us to improve Ultimate-Guitar.com Take our survey!
×
Author
Difficulty
intermediate
Band: Hella
Song: Top Twenty Notes
Album: The Devil Isn't Red
Tabbed by: Henrik

Tuning: DGDFBe

UPDATE: Sorry for the stupid errors. Tab is fixed.

This is the riffs used in the song. Listen to it to figure out when to play them.

These  mean "smack that * around the top frets with your right hand".

    t        t       t      t     t    t    t    t
|-------------------------------------------------|
|-------------------------------------------------|
|-------------------------------------------------|
|-------------------------------------------------|
|-------------------------------------------------|
|-h12p0----h12p0---h12p0--h12p0-h12p0h12p0h12p0h12p0-|


tap high notes with right hand and low notes with the left. "stroke" the b string along 
with the left hand pull-off
Oh, and sometimes the tap sequence before the 3p0 is four times.. I think. Just listen 
to the song.
|---------------------------------------------------------------------|
|----------------0----------------------0----------------------0------|
|----4----4----4p0----------4----4----4p0----------4----4----4p0------|
|-12---12---12--------x2--9----9----9--------x2--7----7----7------x2--|
|---------------------------------------------------------------------|
|--12---12---12------------9----9----9------------7----7----7---------|


|------------------------------------------------------------------------------------------|
|--------------3---------5---------6-------------------3---------5---------6---------------|
|----4----4---------4---------4---------4----4----4---------4---------4---------4----------|
|-12---12---12---12---12---12---12---12---12---12---12---12---12---12---12---12---12---12--|
|------------------------------------------------------------------------------------------|
|--12---12---12---12---12---12---12---12---12---12---12---12---12---12---12---12---12---12-|


|-----------------|
|-6----5----3-----|
|-5----4----4-----|
|--------------0--|
|-----------------|
|-----------------|

All p.muted. Listen to song to get the feel and "exact" amount of notes.
|----------------------------------|----------|
|--------330-------550-------660---|----------|
|---00440-----00440-----00440------|-3--------|
|-00--------00--------00-----------|-2--------|
|----------------------------------|----2--3--|
|----------------------------------|----2--3--|

|---------------------------------------------------------------------------------------|
|----------3-----------3-----------3-----------3--------3---------3---------3---------3-|
|----4-----------4-----------4-----------4---------4---------4---------4---------4------|
|-12----12----12----12----12----12----12----12---9----9----9----9----7----7----7----7---|
|---------------------------------------------------------------------------------------|
|--12----12----12----12----12----12----12----12---9----9----9----9----7----7----7----7--|


|----------------------------------------------------------------------------------------|
|----------3-----------3-----------3-----------3----3-------------------3----------------|
|----4-----------4-----------4-----------4---------------3----2----3---------3----2----3-|
|-12----12----12----12----12----12----12----12----9----9----9----9----7----7----7----7---|
|----------------------------------------------------------------------------------------|
|--12----12----12----12----12----12----12----12----9----9----9----9----7----7----7----7--|


ending
|------------------------------------------|
|----6-----6-----5-----5-----4-----4-----3-|
|------------------------------------------|
|-12----12----12----12----12----12----12---|
|------------------------------------------|
|--12----12----12----12----12----12----12--|
Suggest correction
Give kudos to tab author, rate the tab!
1 2 3 4 5
comments
print report bad tab
guest
You may want to rate the tab now too:
select rating
Wanna post a correction for this tab? Suggest correction