Oops, an error
Loading. Please wait.

Den Finast Eg Veit tab

version 2
version 2

Whole song

328 views 1 this week
no commentswrite comment
1 2 3 4 5
3 more votes to show rating
add to favorites
×
Save as Personal and add changes to this tab that will be seen only by you. Learn more ›
×
You can save this tab as Personal to edit and correct it or add notes. All changes will be seen only by you. Learn more »
launch autoscroll
font size
0
reset
how to read this tab
guitar tuner
edit
Autoscroll
slow
fast
+/-
esc
set tempo
stop
HELLBILLIES - Den Finast Eg Veit

Not all of the chords are correct. BUT the intro is, which is why i made it.

Hellbillies plays the intro in one of two ways, this is the most complicated and the most beautiful version. 
Like the recorded studio version of the song https://www.youtube.com/watch?v=K2kIDs1Ks90

The other way they play it like in live shows are dull. They have just removed the hammer-on and pull-off.

CAPO 3RD

                       
e|---------0h2-0h2p0------0------------------------0h2-0h2p0------------0-0---------0h2-0h2p0-----0-----------|
B|-------3-----------3-------3-2/3--3------------3-----------3----3/5-------3-----3-----------3------3-2/3-3--|
G|-----2---------------2------------4----------2---------------2-------2-2------2---------------2----------4--|
D|---0-----------------------2------4--------0--------------------------------0----------------------2-----4--|
A|------------------------0---------2-----------------------------0-------------------------------0--------2--|
E|------------------------------------------------------------------------------------------------------------|

         
e|-----------------------------|
B|--------3-----------3--3-----|
G|------0----2-------0---------|
D|----2-------------0----------|
A|-----------------------0-----|
E|--0--------2-----3-----------|



     D                      A      D
Dæ æ jaddi me rart koss det kan gå te.
G       A        D         A
Tenk at du går i lag med meg.
   D                      A       Bm
Og om det blæs kaldt æ eg varm og heit,
    Em        A        D
for du æ den finast eg veit.

  D                      A      D
I granskande skin frå ei gatelykt,
G      A   D    A
æ'kji alt like trygt.
   D                      A       Bm
Og spør du meg no, bli eg heilt i beit,
   Em      A         D
Koffår den finast eg veit?

        G                     D
Og  når dyna varmar kring oss båe to
A       D
i mørke natta,
       G                     D
ska eg kviske i øyra ditt og svara på
       Em       A         D
koffår du æ den finast eg veit.
                       
e|---------0h2-0h2p0------0------------------------0h2-0h2p0------------0-0----|
B|-------3-----------3-------3-2/3--3------------3-----------3----3/5-------3--|
G|-----2---------------2------------4----------2---------------2-------2-2-----|
D|---0-----------------------2------4--------0---------------------------------|
A|------------------------0---------2-----------------------------0------------|
E|-----------------------------------------------------------------------------|

       D         A     D
Kor eg henta alt motet frå
G        A   D    A
Kan'kji eg forstå.
    D                A        Bm
Men ein ting veit eg klart og greit,
   Em       A         D
At du æ den finast eg veit.

        G                     D
Og  når dyna varmar kring oss båe to
A       D
i mørke natta,
       G                     D
ska eg kviske i øyra ditt og svara på
       Em       A         D
koffår du æ den finast eg veit.

                       
e|---------0h2-0h2p0------0------------------------0h2-0h2p0------------0-0---------0h2-0h2p0-----0-----------|
B|-------3-----------3-------3-2/3--3------------3-----------3----3/5-------3-----3-----------3------3-2/3-3--|
G|-----2---------------2------------4----------2---------------2-------2-2------2---------------2----------4--|
D|---0-----------------------2------4--------0--------------------------------0----------------------2-----4--|
A|------------------------0---------2-----------------------------0-------------------------------0--------2--|
E|------------------------------------------------------------------------------------------------------------|

         
e|-----------------------------|
B|--------3-----------3--3-----|
G|------0----2-------0---------|
D|----2-------------0----------|
A|-----------------------0-----|
E|--0--------2-----3-----------|........


    Cadd9         G/H             
Nei, at eg skulle ha slik tur, det 
Hb          D/A                  
e 'kje te å tru!
    Cadd9            G/H             
Når alt va slutt, og eg skull gå, ved 
Hb            Asus4    A7                  
døra der stod du!

     D                      A      D
Dæ æ jaddi me rart koss det kan gå te.
G       A        D         A
Tenk at du går i lag med meg.
   D                      A       Bm
Og om det blæs kaldt æ eg varm og heit,
    Em        A        D
for du æ den finast eg veit.

        G                     D
Og  når dyna varmar kring oss båe to
A       D
i mørke natta,
       G                     D
ska eg kviske i øyra ditt og svara på
       Em       A         D
koffår du æ den finast eg veit.

        G                     D
Og  når dyna varmar kring oss båe to
A       D
i mørke natta,
       G                     D
ska eg kviske i øyra ditt og svara på
       Em       A         D
koffår du æ den finast eg veit.
Suggest correction
Creating personal tab
Creating personal tab
You can edit any tab online and save it as your Personal.

You can edit, replace or remove any tab part or add personal notes – all changes will be seen only by you.

Personal tabs can be accessed anytime from any device, even offline.
Learn more »
Give kudos to tab author, rate the tab!
1 2 3 4 5
comments
print report bad tab
guest
You may want to rate the tab now too:
select rating
Wanna post a correction for this tab? Suggest correction