Oops, an error
Loading. Please wait.

Ei Krasafaren Steinbu intro tab

version 1
version 1

Intro

6,124 views 6 this week
1 commentread comment
1 2 3 4 5
x 6
add to favorites
×
Save as Personal and add changes to this tab that will be seen only by you. Learn more ›
×
You can save this tab as Personal to edit and correct it or add notes. All changes will be seen only by you. Learn more »
launch autoscroll
font size
0
reset
how to read this tab
guitar tuner
edit
Autoscroll
slow
fast
+/-
esc
set tempo
stop
Author
Difficulty
I dont take any credit for this tab. Enjoy. ; )

e|--------------------------------------------------------------|
B|--------------------------------------------------------------|
G|--------------------------------------------------------------|
D|---2-0--0h2---0h2--2-0--0h2-----0h2---2--0--0h2-0-------------|
A|-----------0h2--------------0h2-------------------2p0---------|  
E|-0---------------0------------------0------------------3-0----|

            
            
Suggest correction
Creating personal tab
Creating personal tab
You can edit any tab online and save it as your Personal.

You can edit, replace or remove any tab part or add personal notes – all changes will be seen only by you.

Personal tabs can be accessed anytime from any device, even offline.
Learn more »
comments
print report bad tab
1 comment total.
0 reply
zaxx 16 Nov 16, 2009 06:14 AM

Virker ganske akk ! :D
har observert at dem speller litt forskjellig fra live og fra plate :O (høres slik ut hvertfall)
mener den ligner litt mere på "orginalen" past the point of rescue.

*harmonics
E---------------------------------------------------------------------13*----
B---------------------------------------------------------------------13*----
G----------------------------------------------------------------------------
D---2--0--2-----0h2----2--0--2------0h2----2--0--2--0------------------------
A------------0h2----------------0h2--------------------2--0------------------
E------------------------------------------------------------3--0------------

guest
You may want to rate the tab now too:
select rating
Wanna post a correction for this tab? Suggest correction