Oops, an error
Loading. Please wait.

Holocaust tab

68 views 1 this week
no commentswrite comment
1 2 3 4 5
3 more votes to show rating
add to favorites
×
Save as Personal and add changes to this tab that will be seen only by you. Learn more ›
×
You can save this tab as Personal to edit and correct it or add notes. All changes will be seen only by you. Learn more »
launch autoscroll
font size
0
reset
how to read this tab
guitar tuner
edit
Autoscroll
slow
fast
+/-
esc
set tempo
stop
Author
Difficulty
Song: Holocaust
Artist: Hellfire
Album: Warnings (2009)
Notes: We actually play the bridge riff in the same position as the intro
riff, it was just easier to tab in 3rd position. Other than that the song's
pretty much straightforward.

You can listen to Hellfire at www.hellfiremetal.com


Intro: (0:00-0:08)

    E E E E Q+E   Q     E E E H         E E E E Q+E   Q     E E E H
E|------------------|-----------------|-----------------|-----------------|
B|------------------|-----------------|-----------------|-----------------|
G|------------------|-----------------|-----------------|-----------------|
D|------10--11------|-----10--8-------|-----10--11------|-----10--8-------|
A|--8-8---8-------8-|---8---8---------|-8-8---8-------8-|---8---8---------|
E|------------------|-----------------|-----------------|-----------------|
 |                  |                 |                 |                 |
 |                  |                 |                 |                 |
E|------------------|-----------------|-----------------|-----------------|
B|------------------|-----------------|-----------------|-----------------|
G|--10--------------|-----------------|-10--------------|-----------------|
D|--10--------------|-----------------|-10--------------|-----------------|
A|--8---------------|-----------------|-8---------------|-----------------|
E|------------------|-----------------|-----------------|-----------------|


    E E E E Q+E  Q      E E E H         E E E E Q+E   Q     E E E H
E|------------------|-----------------|-----------------|-----------------|
B|------------------|-----------------|-----------------|-----------------|
G|------------------|-----------------|-----------------|-----------------|
D|------12--13------|-----12--10------|-----10--11------|-----10--8-------|
A|--1010--10-----10-|---10--10--------|-8-8---8-------8-|---8---8---------|
E|------------------|-----------------|-----------------|-----------------|
 |                  |                 |                 |                 |
 |                  |                 | Let Ring        |                 |
E|------------------|-----------------|-----------------|-----------------|
B|------------------|-----------------|-----------------|-----------------|
G|--12--------------|-12--------------|-10--------------|-----------------|
D|--12--------------|-10--------------|-10--------------|-----------------|
A|--10--------------|-10--------------|-8---------------|-----------------|
E|------------------|-----------------|-----------------|-----------------|




Verse I (0:08-0:26)

  'Death is in the air...'
    E E E E Q+E   Q     E E E H         E E E E Q+E   Q     E E E H
E|------------------|-----------------|-----------------|-----------------|
B|------------------|-----------------|-----------------|-----------------|
G|------------------|-----------------|-----------------|-----------------|
D|------------------|-----------------|-----------------|-----------------|
A|------3---4~------|-----3---1~------|-----3---4~------|-----3---1~------|
E|--1-1---1-------1-|---1---1---------|-1-1---1-------1-|---1---1---------|


    E E E E Q+E   Q     E E E H         E E E E Q+E   Q     E E E H
E|------------------|-----------------|-----------------|-----------------|
B|------------------|-----------------|-----------------|-----------------|
G|------------------|-----------------|-----------------|-----------------|
D|------------------|-----------------|-----------------|-----------------|
A|------3---4~------|-----3---1~------|-----3---4~------|-----3---1~------|
E|--1-1---1-------1-|---1---1---------|-1-1---1-------1-|---1---1---------|


    E E E E Q+E   Q     E E E H         E E E E Q+E   Q     E E E H
E|------------------|-----------------|-----------------|-----------------|
B|------------------|-----------------|-----------------|-----------------|
G|------------------|-----------------|-----------------|-----------------|
D|------------------|-----------------|-----------------|-----------------|
A|------5---6~------|-----5---3~------|-----5---6~------|-----5---3~------|
E|--3-3---3-------3-|---3---3---------|-3-3---3-------3-|---3---3---------|


    E E E E Q+E   Q     E E E H         E E E E Q+E   Q     E E E Q
E|------------------|-----------------|-----------------|-----------------|
B|------------------|-----------------|-----------------|-----------------|
G|------------------|-----------------|-----------------|-----------------|
D|------------------|-----------------|-----------------|-----------------|
A|------3---4~------|-----3---1~------|-----3---4~------|-----3---1~------|
E|--1-1---1-------1-|---1---1---------|-1-1---1-------1-|---1---1-----1-1-|
                                                                   Pm:. .




Riff (0:26-0:44)

    Q   E Q   E W                 E E   Q   E Q   E W                 E E
E|------------------|-----------------|-----------------|-----------------|
B|------------------|-----------------|-----------------|-----------------|
G|--------5-----6---|-----------------|-------5-----3---|-----------------|
D|--3-----5-----6---|-----------------|-3-----5-----3---|-----------------|
A|--3-----3-----4---|-----------------|-3-----3-----1---|-----------------|
E|--1---1-----1-----|-------------1-1-|-1---1-----1-----|-------------1-1-|
     PM:.     .                   . .       .     .                   . .

    Q   E Q   E W                 E E   Q   E Q   E W                 E E
E|------------------|-----------------|-----------------|-----------------|
B|------------------|-----------------|-----------------|-----------------|
G|--------5-----6---|-----------------|-------5-----3---|-----------------|
D|--3-----5-----6---|-----------------|-3-----5-----3---|-----------------|
A|--3-----3-----4---|-----------------|-3-----3-----1---|-----------------|
E|--1---1-----1-----|-------------1-1-|-1---1-----1-----|-------------3-3-|
     PM:.     .                   . .       .     .                   . .

    Q   E Q   E W                 E E   Q   E Q   E W                 E E
E|------------------|-----------------|-----------------|-----------------|
B|------------------|-----------------|-----------------|-----------------|
G|--------7-----8---|-----------------|-------7-----5---|-----------------|
D|--5-----7-----8---|-----------------|-5-----7-----5---|-----------------|
A|--5-----5-----6---|-----------------|-5-----5-----3---|-----------------|
E|--3---3-----3-----|-------------3-3-|-3---3-----3-----|-------------1-1-|
     PM:.     .                   . .       .     .                   . .

    Q   E Q   E W                 E E   Q   E Q   E Q+W                 
E|------------------|-----------------|-----------------|-----------------|
B|------------------|-----------------|-----------------|-----------------|
G|--------5-----6---|-----------------|-------5-----3---|-----------------|
D|--3-----5-----6---|-----------------|-3-----5-----3---|-----------------|
A|--3-----3-----4---|-----------------|-3-----3-----1---|-----------------|
E|--1---1-----1-----|-------------1-1-|-1---1-----1-----|-----------------|
     PM:.     .                   . .       .     .        




Verse II (0:44-1:01)

  'Then they come again...'
    E E E E Q+E   Q     E E E H         E E E E Q+E   Q     E E E H
E|------------------|-----------------|-----------------|-----------------|
B|------------------|-----------------|-----------------|-----------------|
G|------------------|-----------------|-----------------|-----------------|
D|------------------|-----------------|-----------------|-----------------|
A|------3---4~------|-----3---1~------|-----3---4~------|-----3---1~------|
E|--1-1---1-------1-|---1---1---------|-1-1---1-------1-|---1---1---------|


    E E E E Q+E   Q     E E E H         E E E E Q+E   Q     E E E H
E|------------------|-----------------|-----------------|-----------------|
B|------------------|-----------------|-----------------|-----------------|
G|------------------|-----------------|-----------------|-----------------|
D|------------------|-----------------|-----------------|-----------------|
A|------3---4~------|-----3---1~------|-----3---4~------|-----3---1~------|
E|--1-1---1-------1-|---1---1---------|-1-1---1-------1-|---1---1---------|


    E E E E Q+E   Q     E E E H         E E E E Q+E   Q     E E E H
E|------------------|-----------------|-----------------|-----------------|
B|------------------|-----------------|-----------------|-----------------|
G|------------------|-----------------|-----------------|-----------------|
D|------------------|-----------------|-----------------|-----------------|
A|------5---6~------|-----5---3~------|-----5---6~------|-----5---3~------|
E|--3-3---3-------3-|---3---3---------|-3-3---3-------3-|---3---3---------|


    E E E E Q+E   Q     E E E H         E E E E Q+E   Q     E E E Q   E E
E|------------------|-----------------|-----------------|-----------------|
B|------------------|-----------------|-----------------|-----------------|
G|------------------|-----------------|-----------------|-----------------|
D|------------------|-----------------|-----------------|-----------------|
A|------3---4~------|-----3---1~------|-----3---4~------|-----3---1~------|
E|--1-1---1-------1-|---1---1---------|-1-1---1-------1-|---1---1-----1-1-|
                                                                   Pm:. .




Riff (1:01-1:19)

    Q   E Q   E W                 E E   Q   E Q   E W                 E E
E|------------------|-----------------|-----------------|-----------------|
B|------------------|-----------------|-----------------|-----------------|
G|--------5-----6---|-----------------|-------5-----3---|-----------------|
D|--3-----5-----6---|-----------------|-3-----5-----3---|-----------------|
A|--3-----3-----4---|-----------------|-3-----3-----1---|-----------------|
E|--1---1-----1-----|-------------1-1-|-1---1-----1-----|-------------1-1-|
     PM:.     .                   . .       .     .                   . .

    Q   E Q   E W                 E E   Q   E Q   E W                 E E
E|------------------|-----------------|-----------------|-----------------|
B|------------------|-----------------|-----------------|-----------------|
G|--------5-----6---|-----------------|-------5-----3---|-----------------|
D|--3-----5-----6---|-----------------|-3-----5-----3---|-----------------|
A|--3-----3-----4---|-----------------|-3-----3-----1---|-----------------|
E|--1---1-----1-----|-------------1-1-|-1---1-----1-----|-------------3-3-|
     PM:.     .                   . .       .     .                   . .

    Q   E Q   E W                 E E   Q   E Q   E W                 E E
E|------------------|-----------------|-----------------|-----------------|
B|------------------|-----------------|-----------------|-----------------|
G|--------7-----8---|-----------------|-------7-----5---|-----------------|
D|--5-----7-----8---|-----------------|-5-----7-----5---|-----------------|
A|--5-----5-----6---|-----------------|-5-----5-----3---|-----------------|
E|--3---3-----3-----|-------------3-3-|-3---3-----3-----|-------------1-1-|
     PM:.     .                   . .       .     .                   . .

    Q   E Q   E W                 E E   Q   E Q   E Q+W                 
E|------------------|-----------------|-----------------|-----------------|
B|------------------|-----------------|-----------------|-----------------|
G|--------5-----6---|-----------------|-------5-----3---|-----------------|
D|--3-----5-----6---|-----------------|-3-----5-----3---|-----------------|
A|--3-----3-----4---|-----------------|-3-----3-----1---|-----------------|
E|--1---1-----1-----|-------------1-1-|-1---1-----1-----|-----------------|
     PM:.     .                   . .       .     .        




Bridge Section (1:19-2:03)

    Q   E E E E Q     Q   E Q   E Q     Q   E E E E Q     Q   E Q   E Q
E|------------------|-----------------|-----------------|-----------------|
B|o-----------------|-----------------|-----------------|-----------------|
G|--5-----------5---|-5-----6-----5---|-5-----------5---|-5-----6-----5---|
D|------3-3-3-3-----|-----3-----3-----|-----3-3-3-3-----|-----3-----3-----|
A|o-----------------|-----------------|-----------------|-----------------|
E|------------------|-----------------|-----------------|-----------------|
     PM:. . . .                             . . . .


    Q   E E E E Q     Q   E Q   E Q     Q   E E E E Q     Q   E Q   E Q   x2
E|------------------|-----------------|-----------------|-----------------||
B|------------------|-----------------|-----------------|----------------o||
G|--7-----------7---|-7-----8-----7---|-8-----------8---|-8-----10----8---||
D|------5-5-5-5-----|-----5-----5-----|-----6-6-6-6-----|-----6-----6-----||
A|------------------|-----------------|-----------------|----------------o||
E|------------------|-----------------|-----------------|-----------------||
     PM:. . . .                             . . . .


    Q   E E E E Q     Q   E Q   E Q     Q   E E E E Q     Q   E Q   E Q
E|------------------|-----------------|-----------------|-----------------|
B|o-6-----------6---|-6-----7-----6---|-6-----------6---|-6-----7-----6---|
G|------3-3-3-3-----|-----3-----3-----|-----3-3-3-3-----|-----3-----3-----|
D|------------------|-----------------|-----------------|-----------------|
A|o-----------------|-----------------|-----------------|-----------------|
E|------------------|-----------------|-----------------|-----------------|
     PM:. . . .                             . . . .


    Q   E E E E Q     Q   E Q   E Q     Q   E E E E Q     Q   E Q   E Q   x2
E|------------------|-----------------|-----------------|-----------------||
B|--8-----------8---|-8-----9-----8---|-9-----------9---|-9-----11----9--o||
G|------5-5-5-5-----|-----5-----5-----|-----6-6-6-6-----|-----6-----6-----||
D|------------------|-----------------|-----------------|-----------------||
A|------------------|-----------------|-----------------|----------------o||
E|------------------|-----------------|-----------------|-----------------||
     PM:. . . .                             . . . .


    E E E E Q+E   Q     E E E H         E E E E Q+E   Q     E E E H
E|------------------|-----------------|-----------------|-----------------|
B|------------------|-----------------|-----------------|-----------------|
G|------------------|-----------------|-----------------|-----------------|
D|------10--11------|-----10--8-------|-----10--11------|-----10--8-------|
A|--8-8---8-------8-|---8---8---------|-8-8---8-------8-|---8---8---------|
E|------------------|-----------------|-----------------|-----------------|


    E E E E Q+E  Q      E E E H         E E E E Q+E   Q     E E E H
E|------------------|-----------------|-----------------|-----------------|
B|------------------|-----------------|-----------------|-----------------|
G|------------------|-----------------|-----------------|-----------------|
D|------12--13------|-----12--10------|-----10--11------|-----10--8-------|
A|--1010--10-----10-|---10--10--------|-8-8---8-------8-|---8---8---------|
E|------------------|-----------------|-----------------|-----------------|




Verse III (2:03-2:21)

  'Life turns into death...'
    E E E E Q+E   Q     E E E H         E E E E Q+E   Q     E E E H
E|------------------|-----------------|-----------------|-----------------|
B|------------------|-----------------|-----------------|-----------------|
G|------------------|-----------------|-----------------|-----------------|
D|------------------|-----------------|-----------------|-----------------|
A|------3---4~------|-----3---1~------|-----3---4~------|-----3---1~------|
E|--1-1---1-------1-|---1---1---------|-1-1---1-------1-|---1---1---------|


    E E E E Q+E   Q     E E E H         E E E E Q+E   Q     E E E H
E|------------------|-----------------|-----------------|-----------------|
B|------------------|-----------------|-----------------|-----------------|
G|------------------|-----------------|-----------------|-----------------|
D|------------------|-----------------|-----------------|-----------------|
A|------3---4~------|-----3---1~------|-----3---4~------|-----3---1~------|
E|--1-1---1-------1-|---1---1---------|-1-1---1-------1-|---1---1---------|


    E E E E Q+E   Q     E E E H         E E E E Q+E   Q     E E E H
E|------------------|-----------------|-----------------|-----------------|
B|------------------|-----------------|-----------------|-----------------|
G|------------------|-----------------|-----------------|-----------------|
D|------------------|-----------------|-----------------|-----------------|
A|------5---6~------|-----5---3~------|-----5---6~------|-----5---3~------|
E|--3-3---3-------3-|---3---3---------|-3-3---3-------3-|---3---3---------|


    E E E E Q+E   Q     E E E H         E E E E Q+E   Q     E E E Q   E E
E|------------------|-----------------|-----------------|-----------------|
B|------------------|-----------------|-----------------|-----------------|
G|------------------|-----------------|-----------------|-----------------|
D|------------------|-----------------|-----------------|-----------------|
A|------3---4~------|-----3---1~------|-----3---4~------|-----3---1~------|
E|--1-1---1-------1-|---1---1---------|-1-1---1-------1-|---1---1-----1-1-|
                                                                   Pm:. .




Riff (2:21-2:38)

    Q   E Q   E W                 E E   Q   E Q   E W                 E E
E|------------------|-----------------|-----------------|-----------------|
B|------------------|-----------------|-----------------|-----------------|
G|--------5-----6---|-----------------|-------5-----3---|-----------------|
D|--3-----5-----6---|-----------------|-3-----5-----3---|-----------------|
A|--3-----3-----4---|-----------------|-3-----3-----1---|-----------------|
E|--1---1-----1-----|-------------1-1-|-1---1-----1-----|-------------1-1-|
     PM:.     .                   . .       .     .                   . .

    Q   E Q   E W                 E E   Q   E Q   E W                 E E
E|------------------|-----------------|-----------------|-----------------|
B|------------------|-----------------|-----------------|-----------------|
G|--------5-----6---|-----------------|-------5-----3---|-----------------|
D|--3-----5-----6---|-----------------|-3-----5-----3---|-----------------|
A|--3-----3-----4---|-----------------|-3-----3-----1---|-----------------|
E|--1---1-----1-----|-------------1-1-|-1---1-----1-----|-------------3-3-|
     PM:.     .                   . .       .     .                   . .

    Q   E Q   E W                 E E   Q   E Q   E W                 E E
E|------------------|-----------------|-----------------|-----------------|
B|------------------|-----------------|-----------------|-----------------|
G|--------7-----8---|-----------------|-------7-----5---|-----------------|
D|--5-----7-----8---|-----------------|-5-----7-----5---|-----------------|
A|--5-----5-----6---|-----------------|-5-----5-----3---|-----------------|
E|--3---3-----3-----|-------------3-3-|-3---3-----3-----|-------------1-1-|
     PM:.     .                   . .       .     .                   . .

    Q   E Q   E W                 E E   Q   E Q   E Q+W                 
E|------------------|-----------------|-----------------|-----------------|
B|------------------|-----------------|-----------------|-----------------|
G|--------5-----6---|-----------------|-------5-----3---|-----------------|
D|--3-----5-----6---|-----------------|-3-----5-----3---|-----------------|
A|--3-----3-----4---|-----------------|-3-----3-----1---|-----------------|
E|--1---1-----1-----|-------------1-1-|-1---1-----1-----|-----------------|
     PM:.     .                   . .       .     .        




Ending (2:38-2:58)

    E E E E Q+E   Q     E E E H         E E E E Q+E   Q     E E E H
E|------------------|-----------------|-----------------|-----------------|
B|o-----------------|-----------------|-----------------|-----------------|
G|------------------|-----------------|-----------------|-----------------|
D|------10--11------|-----10--8-------|-----10--11------|-----10--8-------|
A|o-8-8---8-------8-|---8---8---------|-8-8---8-------8-|---8---8---------|
E|------------------|-----------------|-----------------|-----------------|


    E E E E Q+E  Q      E E E H         E E E E Q+E   Q     E E E H       x2
E|------------------|-----------------|-----------------|-----------------||
B|------------------|-----------------|-----------------|----------------o||
G|------------------|-----------------|-----------------|-----------------||
D|------12--13------|-----12--10------|-----10--11------|-----10--8-------||
A|--1010--10-----10-|---10--10--------|-8-8---8-------8-|---8---8--------o||
E|------------------|-----------------|-----------------|-----------------||

            
            
Suggest correction
Creating personal tab
Creating personal tab
You can edit any tab online and save it as your Personal.

You can edit, replace or remove any tab part or add personal notes – all changes will be seen only by you.

Personal tabs can be accessed anytime from any device, even offline.
Learn more »
Give kudos to tab author, rate the tab!
1 2 3 4 5
comments
print report bad tab
guest
You may want to rate the tab now too:
select rating
Wanna post a correction for this tab? Suggest correction