Oops, an error
Loading. Please wait.

Drake Night chords

58 views 1 this week
no commentswrite comment
1 2 3 4 5
3 more votes to show rating
add to favorites
×
Save as Personal and add changes to this tab that will be seen only by you. Learn more ›
×
You can save this tab as Personal to edit and correct it or add notes. All changes will be seen only by you. Learn more »
launch autoscroll
font size
0
reset
transpose
0
reset
display chords
guitar tuner
edit
Autoscroll
slow
fast
+/-
esc
set tempo
stop
Author
Strumming
There is no strumming pattern for this song yet. and get +5 IQ
chords used:
     G    Bm   Am
e|---------------------------------------------------------------------------|
B|--------13-----------------------------------------------------------------|
G|---12---12-----------------------------------------------------------------|
D|---14--------14------------------------------------------------------------|
A|-------------12------------------------------------------------------------|
E|---------------------------------------------------------------------------|

[Intro]

G Bm Am 2x


[Verse]

G                             Bm                              Am
I was only trying to push you away after I found out you were leaving so it would be easier to take
    G                                   Bm                               Am
And half the time you're half awake and count how many times it takes to call you just to 

know that you're okay
      G                              Bm                                Am
And I saw you the other night at the dance club it was Drake night and even in the dark you were

light up like the moonlight
    G                                Bm                         Am                                      
And every time I dream of you you're at your old place on South Union Avenue where I stayed 

for about a week or two


[Chorus]

G

       Bm           Am   
Don't fear the grim reaper
      G      Bm     A              
It is just a little crush
                  G         Bm
That you've never touched
                   Am                        G       Bm     A
And if you want it to there's nothing I could do


[Outro]

G  Bm  Am  1x
 
e|---------------------------------------------------------------------------|
B|--------13-----------------------------------------------------------------|
G|---12---12----------12----------------------12--------16------17-----------|
D|---14--------14--14----14-12----14-----------------------------------------| 1x
A|-------------12--------------15--------------------------------------------|
E|---------------------------------------------------------------------------|

            
            
Suggest correction
Creating personal tab
Creating personal tab
You can edit any tab online and save it as your Personal.

You can edit, replace or remove any tab part or add personal notes – all changes will be seen only by you.

Personal tabs can be accessed anytime from any device, even offline.
Learn more »
Give kudos to tab author, rate the tab!
1 2 3 4 5
comments
print report bad tab
guest
You may want to rate the tab now too:
select rating
Wanna post a correction for this tab? Suggest correction