Oops, an error
Loading. Please wait.

Dear Jamiesincerely Me Tab

version 1
version 1

Whole song

6,807 views 1 this week
1 commentread comment
1 2 3 4 5
excellent!
x 3
add to favorites
launch autoscroll
font size
0
reset
how to read this tab
guitar tuner
Tab Pro tools
  • play this tab
  • loop segment
  • change instrument
  • show fretboard
  • metronome
×
Best way to learn
"Dear Jamiesincerely Me"
Autoscroll
slow
fast
+/-
esc
set tempo
stop
Contributor
Intro

E|-------------------------------------|
B|---8-10-8---8-10-8---8-10-8---8-10-8-|
G|-------------------0-----------------|	Play
D|-0-----------------------------------|	twice
A|----------9-----------------0--------|
E|-------------------------------------|

*NOTE: The intro, as well as the first two verses, sound better if you let each bass 
ring until the next bass note. Also, the A bass note shown here is actually an octave lower 
the one actually played in the song, but it's easier to play the lower octave.

Verse 1- (Essentially the same thing as the intro)

E|-------------------------------------|
B|---8-10-8---8-10-8---8-10-8---8-10-8-|
G|-------------------0-----------------|	Play 4
D|-0-----------------------------------|	times
A|----------9-----------------0--------|
E|-------------------------------------|

Play that throughout these lyrics-

Dear Jamie, I've got a letter I would like to send
It's lacking strings of words with punctuation at the end


E|-------------------------------------------|
B|---7------7-------10~--------10--8---7~----|
G|------7------7-----------------------------|
D|-------------------------------------------|
A|-------------------------------------------|
E|-------------------------------------------|

       But should I trust this di - a - lect
(Not sure if this part is 100% correct, but it sounds okay)

E|----------------------------------------|
B|---7------7-------10~---10---8----7~----|
G|------7------7--------------------------|
D|----------------------------------------|
A|----------------------------------------|
E|----------------------------------------|

            To convey the right ef - fect?

E|-------------------------------------|
B|---8-10-8---8-10-8---8-10-8---8-10-8-|
G|-------------------0-----------------|	Play
D|-0-----------------------------------|	twice
A|----------9-----------------0--------|
E|-------------------------------------|

Verse 2- (EXACTLY the same thing as verse 1)


Chorus

D	     A		    Bm		       G
Every page I try my best to think of something to contest;
     D		      A			 Bm		  G
With inside jokes and other folks who've got much more to say


Verse 3

E|-------------------------------------|
B|---8-10-8---8-10-8---8-10-8---8-10-8-|
G|-------------------0-----------------|	Play
D|-0-----------------------------------|	once
A|----------9-----------------0--------|
E|-------------------------------------|

Play that through these lyrics-

Dear Jamie, this envelope will


*NOTE: If you really enjoy playing the lead part, you can actually continue playing it 
you did in verse 1 and 2. If not, the rest of verse 3 actually has a guitar part playing 
which goes like this-

    D            G      A      D                G       A
E|----------------------------------------------------------|
B|----------------------------------------------------------|
G|--7-7------------------------7-7--------------------------|
D|--7-7----------5-5----7-7----7-7--------------5-5-----7-7-|
A|--5-5----------5-5----7-7----5-5--------------5-5-----7-7-|
E|---------------3-3----5-5---------------------3-3-----5-5-|

    Represent my heart.           I'll seal it, send it off

	       D                     G      A
E|----------------------------------------------|
B|----------------------------------------------|
G|-------------7-7------------------------------|
D|-------------7-7-------------------5-5----7-7-|
A|-------------5-5-------------------5-5----7-7-|
E|-----------------------------------3-3----5-5-|

   and wish it luck with it's depart.


(This part played best barred)

D          F#m        G  A           D     F#m  G  A
  And this stamp will be every action that carried my affection
D  F#m       G        A              D   F#m   G   A
  Across the air, and land, and sea.

E|-----------------------------------------------|
B|---7------7-------10~---------10-----8---7~----|
G|------7------7---------------------------------|
D|-----------------------------------------------|
A|-----------------------------------------------|
E|-----------------------------------------------|

            Should I trust this post - age due

E|-------------------------------------------|
B|---7------7-------10~---10----8--7~--------|
G|------7------7-----------------------------|
D|-------------------------------------------|
A|-------------------------------------------|
E|-------------------------------------------|

            To deliver my heart to you?

Chorus

D	     A		    Bm		       G
Every page I try my best to think of something to contest;
     D		      A			 Bm		  G
With inside jokes and other folks who've got much more to say...
D	     A		    Bm		       G
Every page I try my best to fill with something to contest;
     D		      A			 Bm		  G
With inside jokes and other folks who've got much more to say


Note: When he repeats the chorus, it sounds a little different, mainly due to the 
pattern. The repeated chorus, I think, should have a strumming pattern of up, down, up, down. 
as long as you strum it differently the second time around, you should be fine.

Bridge

     F#m	    Bm
I'll give you all I can
  F#m
A flower and a hand
  Bm
I hope this helps you see
G
Signed, sincerely me

*NOTE: Strum each bridge chord once and let it ring.


Outro

E|-10----10-9-10------------------------------9----9---9-10-|
B|----10---------10--10-10-10-8----7---7-8------10---8------|
G|-------------------------------7---7-----7----------------|
D|----------------------------------------------------------|
A|----------------------------------------------------------|
E|----------------------------------------------------------|

Repeat outro as many times as needed, and end with this:

E|-10--|
B|-10--|
G|-----|
D|-----|
A|-----|
E|-----|
comments
We did not receive enough feedback on this tab! Please rate:
print report bad tab
1 2 3 4 5
1 comment total.
0 reply
ICECOLD3001 wrote on January 26 2009, 10:41 pm

This one works. The rest are horrible. Thanks.

I want to post or [tab]
guest
You may want to rate the tab now too:
select rating
Please do not post tabs as comments. Select "correction" instead!