Oops, an error
Loading. Please wait.

Here In Your Arms Tab

version 1
version 1

Acoustic

Whole song

Interactive

7,291 views 15 this week
2 commentsread comments
1 2 3 4 5
accurate
x 4
add to favorites
launch autoscroll
font size
0
reset
how to read this tab
guitar tuner
Tab Pro tools
  • play this tab
  • loop segment
  • change instrument
  • show fretboard
  • metronome
×
Best way to learn
"Here In Your Arms"
Autoscroll
slow
fast
+/-
esc
set tempo
stop
Contributor
Capo
7th fret
Here in your arms - Hello Goodbye cover by Samuel & Kristin. acoustic cover of the 
famous house/pop/dance song here in your arms. www.myspace.com/samuelgajicki
www.myspace.com/wibergkristin

I am not either of these people haha, I'm just a dude who figured out their version, so 
don't ask me for more of their songs :p.

It's standard tuning

Capo on the 7th fret

Chords, all relative to capo

Asus2:X02200
Asus2/G#:4X2200
Asus2/F#:2X2200
Asus2/E:0X2200

e|-------0---------|-------0---------|-------0---------|-------0----------||
B|---0-------0---0-|---0-------0---0-|---0-------0---0-|---0-------0---0--||
G|-----2---2---2---|-----2---2---2---|-----2---2---2---|-----2---2---2----||
D|-----------------|-----------------|-----------------|------------------||
A|-0---------------|-----------------|-----------------|------------------||
E|-----------------|-4---------------|-2---------------|-0----------------||

Repeat that the whole song! Enjoy!
comments
print report bad tab
2 comments total.
0 reply
jeremyowen wrote on June 7 2015, 07:59 am

This isn't quite right, it is actually Dropped-D and then 7th fret capo

The progression on the lower D is also wrong, should be 2-4-0

Hence correct tab is:

e|-------0---------|-------0---------|-------0---------|-------0----------||
B|---0-------0---0-|---0-------0---0-|---0-------0---0-|---0-------0---0--||
G|-----2---2---2---|-----2---2---2---|-----2---2---2---|-----2---2---2----||
D|-----------------|-----------------|-----------------|------------------||
A|-0---------------|-----------------|-----------------|------------------||
D|-----------------|-2---------------|-4---------------|-0----------------||

0 reply
jeremyowen wrote on June 7 2015, 08:01 am

Clearly wrong. The tuning is incorrect and the progression of some of the notes is also wrong. I have added the correct tab in the correction box below.

I want to post or [tab]
guest
You may want to rate the tab now too:
select rating
Please do not post tabs as comments. Select "correction" instead!