Oops, an error
Loading. Please wait.

Here In Your Arms Bass Tab

version 1
version 1

Whole song

Interactive

5,513 views 1 this week
2 commentsread comments
1 2 3 4 5
excellent!
x 4
add to favorites
launch autoscroll
font size
0
reset
guitar tuner
Tab Pro tools
  • play this tab
  • loop segment
  • change instrument
  • show fretboard
  • metronome
×
Best way to learn
"Here In Your Arms"
Autoscroll
slow
fast
+/-
esc
set tempo
stop
Difficulty
novice
-------------------------------------------------------------------------------
			     HERE IN YOUR ARMS - Hellogoodbye
-------------------------------------------------------------------------------

Tabbed By : Andrew Jones
e-mail: snbritishfreak@hotmail.com

Tuning: Standard

No bass for the first verse...

Chorus
G|-------------------------------------------|
D|-------------------------------------------|
A|-8--8-8-8-\-3--3-3-3-/-5--5-5-5-\-1--1-1-1-| x2
E|-------------------------------------------|


Pre-verse (don't play the first time, then...)
G|-------------------------------------------|
D|-------------------------------------------|
A|-8--8-8-8---3--3-3-3---5--5-5-5---1--1-1-1-|
E|-------------------------------------------|


Verse 2 - Enter after "Where you sleep...here"
G|-----------------------------------------------------------------|
D|-----------------------------------------------------------------|
A|-8--8---3--3---5--5---1--1--1-1-----8--8---3--3---5--5---1--1----|
E|-----------------------------------------------------------------|


Chorus
G|-------------------------------------------|
D|-------------------------------------------|
A|-8--8-8-8-\-3--3-3-3-/-5--5-5-5-\-1--1-1-1-| x4
E|-------------------------------------------|


Bridge
G|----------------------|
D|----------------------|
A|-/8----------8\-------|
E|----------------------|

G|------------------------------------------|
D|------------------------------------------|
A|8--8-8-8---3--3-3-3---5--5-5-5---1--1-1-1-| x3
E|------------------------------------------|


Chorus - Enter at "I fell in love..."
G|-------------------------------------------|
D|-------------------------------------------|
A|-8--8-8-8-\-3--3-3-3-/-5--5-5-5-\-1--1-1-1-| x3
E|-------------------------------------------|


Outro
G|-----------------------------------------------------------------|
D|-----------------------------------------------------------------|
A|-8-8-8-8-8-8-8-8-3-3-3-3-3-3-3-3-5-5-5-5-5-5-5-5-1-1-1-1-1-1-1-1-| x2
E|-----------------------------------------------------------------|

G|--------------|
D|--------------|
A|-8~-----------|
E|--------------|
comments
print report bad tab
2 comments total.
0 reply
jrballa12 wrote on June 26 2007, 08:51 pm

sounds right

0 reply
bassguy712 wrote on January 4 2008, 03:44 pm

it sounds good, thanks!

I want to post or [tab]
guest
You may want to rate the tab now too:
select rating
Please do not post tabs as comments. Select "correction" instead!