Oops, an error
Loading. Please wait.

Here In Your Arms Tab

version 1
version 1

Whole song

Interactive

21,768 views 6 this week
no commentswrite comment
1 2 3 4 5
x 4
add to favorites
launch autoscroll
font size
0
reset
how to read this tab
guitar tuner
Autoscroll
slow
fast
+/-
esc
set tempo
stop
Help us to improve Ultimate-Guitar.com Take our survey!
×
Author
Difficulty
novice
okay heres the deal.. hellogoodbye lead singer cant play and sing very well so often
the same chord over and over while the moog* plays the stuff that you really hear, at least
what ive seen... the chords used are not what is played in the song but if your playing 
yourself its the best way i guess... i hope this helps. im putting what i think he's
in there as well

F x.8.9.9.8.8
C 8.9.9.8.8.x
D 10.11.11.10.10.x
Bb 6.8.8.6.6.x


intro
e----------------------------------------------|
B--x-------------------------------------------|
G--x--x-----x---x------------------------------|
D--x--x-----x---x------------------------------|
A--8--x-----x---x------------------------------|
E-----8----10---6------------------------------|
i like where we are, when we drive in your car, i like where we are, here.

verse
e----------------------------------------------|
B---------13-------------13--------------------|
G----12-----12------12-----12------------------|
D--15--15-----15--14--14-----14----------------|
A----------------------------------------------|
E----------------------------------------------|

cuz our lips can touch, and our cheeck can brush, our lips can touch, here.

chorus
e-----------------------------------------------|
B----13----13-----13-----13---------------------|
G----12----12-----12-----12---------------------|
D----15----14-----15-----14---------------------|
A-----x-----x------x------x---------------------|
E----13----12-----13-----12---------------------|
     F     C       D     Bb

you are the one
the one that lies to close to me
whispers hello i miss you quite terribly
i fell in love
in love with you suddenly
now theres no place else i could be
but here in your arms

Bridge
e--8-/--8--8--8----x----8--8--8-----------------|
B--8-/--8--8--8----8-/--8--8--8-----------------|
G--10/--12-12-10---8-/--12-12-10----------------|
D--10/--10-10-10---10/--10-10-10----------------|
A--8-/--8--8--8----10/--8--8--8-----------------|
E--x----x--x--x----8-/--x--x--x-----------------|
Suggest correction
comments
print report bad tab
guest
You may want to rate the tab now too:
select rating
Wanna post a correction for this tab? Suggest correction