Oops, an error
Loading. Please wait.

Here In Your Arms Bass Tab

version 2
version 2

Whole song

Interactive

919 views 1 this week
3 commentsread comments
1 2 3 4 5
1 last vote to show rating
add to favorites
launch autoscroll
font size
0
reset
guitar tuner
Autoscroll
slow
fast
+/-
esc
set tempo
stop
Help us to improve Ultimate-Guitar.com Take our survey!
×
Difficulty
novice
Hey,this is my very first tab, so here's to hopin' it's right! Well, it should be,since 
REALLY easy.

Band:hellogoodbye
Song:Here in your arms
tabbed by(if ya care):me;K.T.A

So there's no bass at first(that's the keyboard),it comes in at the chorus.
Chorus 1
G|-------------------------------------------------|
D|-------------------------------------------------|
A|--7--777-77---3-3-33---5--555-55-----------------|
E|-----------------------------------5-5-55--------|  X2

Bridge
G|-------------------------------------------------|
D|-------------------------------------------------|
A|--7--7-7-7---4--4-4-4---5--5-5-5---1--1--1-1-----|
E|-------------------------------------------------|
(
Verse(1/2 way through)
G|------------------------------------------------------|
D|------------------------------------------------------|
A|---7-7---4-4----5-5---1-1--1-0----7-7--4-4--5-5--1-1--|
E|------------------------------------------------------|

Chorus 2
G|----------------------------------------------------|
D|----------------------------------------------------|
A|---7--777-77---4-4-44---5--555-55----1-1--1-1-------|
E|----------------------------------------------------|  X4

the longest pause ever, so it u can play keyboard, do that

Bridge X2
Chorus 2 X3

Outro
G|-------------------------------------------------------|
D|-------------------------------------------------------|
A|---77777777-44444444-55555555-11111111-----------------|
E|-------------------------------------------------------|  X2

That's it people! Hope u like it, it's an awesome song. I'm know the keyboards too, but 
just have to transcribe it for guitar.Please rate well,I really tried,so. Ya. Peace 
out. Bye.
Suggest correction
Give kudos to tab author, rate the tab!
1 2 3 4 5
comments
print report bad tab
3 comments total.
-1 reply
jrballa12 52 Jun 26, 2007 08:51 PM

way wrong

0 reply
rcknshdw 10 Aug 27, 2009 08:15 PM

In a band that plays very similar music to Hellogoodbye! If you crank up the volume (which you should always do with Hellogoodbye! lol!) and listen to the bass it's def. x-xxx-xx or x-xxx-xxx and not x-x-x-x during the chorus. Confirmed by my bassist. We've played with both versions and this is more true to the original, just needs a little bit of correction that's all! Good jorb subby ^_^.

0 reply
Nickel89 116 Feb 03, 2014 06:02 PM

Quite a bit off.

guest
You may want to rate the tab now too:
select rating
Wanna post a correction for this tab? Suggest correction