Oops, an error
Loading. Please wait.

Here In Your Arms Tab

version 3
version 3

Whole song

Interactive

2,284 views 1 this week
no commentswrite comment
1 2 3 4 5
please rate
add to favorites
launch autoscroll
font size
0
reset
how to read this tab
guitar tuner
Autoscroll
slow
fast
+/-
esc
set tempo
stop
Help us to improve Ultimate-Guitar.com Take our survey!
×
Tuning Standard E A D G B e
Here in your arms - Hellogoodbye
tab by fantomass


Verse

1) -bass
   G|-----------------------|
   D|-----------------------|
   A|--8--/--3--/--5--/--1--|
   E|-----------------------|

2) -bass
   G|-----------------------|
   D|-----------------------|
   A|--8--/--3--/--5--/--1--|
   E|-----------------------|

   -guitar 1
   e|---------8----------------8--------|
   B|----8----------8------8--------8---|
   G|-10---10----10---10-9---9----9---9-|
   D|-----------------------------------|
   A|-----------------------------------|
   E|-----------------------------------|

3) -bass
   G|-----------------------|
   D|-----------------------|
   A|--8--/--3--/--5--/--1--|
   E|-----------------------|

   -guitar 1
   e|---------8-------------8------|
   B|----8-------8-------8-----8---|
   G|-10---10-------10-9---9-----9-|
   D|------------------------------|
   A|------------------------------|
   E|------------------------------|

   -guitar 2 
   e|-----------------------|
   B|-----------------------|
   G|-----------------------|
   D|-----------------------|
   A|--8--/--3--/--5--/--1--|
   E|-----------------------|

Chorus

4) -bass
   G|-----------------------|
   D|-----------------------|
   A|-----/--3--/--5--/--1--|
   E|--1--/-----------------|

   -guitar 2
   e|-----------------------|
   B|-----------------------|
   G|-----/--5--/--7--/--3--|
   D|--3--/--5--/--7--/--3--|
   A|--3--/--3--/--5--/--1--|
   E|--1--/-----------------|

   -guitar 1
   e|--8--------/--10-------|
   B|-----------------------|
   G|-----------------------|
   D|-----------------------|
   A|-----------------------|
   E|-----------------------|
    
Pre-Chorus

5) -guitar 1
   e|------------|
   B|------------|
   G|-17--12-12--|
   D|-x---x--x---|
   A|-15--10-10--|
   E|------------|

   -guitar 2
   e|------------|
   B|------------|
   G|-10-xxxx-10-|
   D|-10-xxxx-10-|
   A|-8--xxxx-8--|
   E|------------|

   -bass
   G|------------|
   D|------------|
   A|-3-/-12---3-|
   E|------------|

Verse

6) -bass
   G|-----------------------|
   D|-----------------------|
   A|--8--/--3--/--5--/--1--|
   E|-----------------------|

   -guitar 1
   e|-----------------------|
   B|-----------------------|
   G|-----------------------|
   D|-----------------------|
   A|--8--10--10-8--10--10--|
   E|-----------------------|

7) -bass
   G|-----------------------|
   D|-----------------------|
   A|--8--/--3--/--5--/--1--|
   E|-----------------------|

   -guitar 1
   e|-----------------------|
   B|-----------------------|
   G|-----------------------|
   D|-----------------------|
   A|--8--10--10-8--10--10--|
   E|-----------------------|

  -guitar 2
   e|-----------------------|
   B|-----------------------|
   G|xx10-/--5--/--7--/--3--|
   D|xx10-/--5--/--7--/--3--|
   A|xx8--/--3--/--5--/--1--|
   E|-----------------------|

Chorus

8) -bass
   G|-----------------------|
   D|-----------------------|
   A|-----/--3--/--5--/--1--|
   E|--1--/-----------------|

   -guitar 2
   e|-----------------------|
   B|-----------------------|
   G|-----/--5--/--7--/--3--|
   D|--3--/--5--/--7--/--3--|
   A|--3--/--3--/--5--/--1--|
   E|--1--/-----------------|

   -guitar 1
   e|--8--------/--10-------|
   B|-----------------------|
   G|-----------------------|
   D|-----------------------|
   A|-----------------------|
   E|-----------------------|
   
   -guitar 1
   e|13/15--13/15--13/13--12/12--12/13-13-----(17)-|
   B| -------------------------------------(15)----|
   G|----------------------------------------------|
   D|----------------------------------------------|
   A|----------------------------------------------|
   E|----------------------------------------------|

Verse

9) -guitar 2
   e|------------|
   B|------------|
   G|----10-/----|
   D|----10-/----|
   A|----8--/----|
   E|------------|

   -guitar 1
   e|---3---5-5-3------3-3---------5-5-3-----3-3---|
   B|-6---3--------3-3-----6-3-6-3--------6-6-----6|
   G|----------------------------------------------|
   D|----------------------------------------------|
   A|----------------------------------------------|
   E|----------------------------------------------|

   -guitar 2
   e|-13--15------------17--|
   B|--------13/15---15-----|
   G|-----------------------|
   D|-----------------------|
   A|-----------------------|
   E|-----------------------|

Chorus

10) -bass
   G|-----------------------|
   D|-----------------------|
   A|--8--/--3--/--5--/--1--|
   E|-----------------------|

   -guitar 1
   e|-----------------------|
   B|-----------------------|
   G|-----------------------|
   D|-----------------------|
   A|--8--10--10-8--10--10--|
   E|-----------------------|

  -guitar 2
   e|-----------------------|
   B|-----------------------|
   G|xx10-/--5--/--7--/--3--|
   D|xx10-/--5--/--7--/--3--|
   A|xx8--/--3--/--5--/--1--|
   E|-----------------------|

Acoustic Chords : Capo 5 ft 
 C G Am F


Enjoy !!

sk8teur_cosmic@hotmail.fr
Suggest correction
What's this?
You can suggest a correction to this tab. Community and Mods will review your correction and vote to approve or reject it.
comments
We did not receive enough feedback on this tab! Please rate:
print report bad tab
1 2 3 4 5
guest
You may want to rate the tab now too:
select rating
Please do not post tabs as comments. Select "correction" instead!