Oops, an error
Loading. Please wait.

Homewrecker Tab

version 1
version 1

Whole song

2,500 views 1 this week
no commentswrite comment
1 2 3 4 5
please rate
add to favorites
launch autoscroll
font size
0
reset
how to read this tab
guitar tuner
Autoscroll
slow
fast
+/-
esc
set tempo
stop
Help us to improve Ultimate-Guitar.com Take our survey!
×
Difficulty
novice
SONG NAME: Homewrecker - Band Name: Hellogoodbye
-------------------------------------------------------------------------------
Tabbed by: Angel
Email: muchopapel@hotmail.com

Tuning:Standard

e|---------------------------------------------------------------------------|
B|---------------------------------------------------------------------------|
G|---------------------------------------------------------------------------|
D|---------------------------------------------------------------------------|
A|--7-77-77-77-7-5-55-55-55-5-7-77-77-77-7-5-55-55-55-5----------------------|
E|---------------------------------------------------------------------------|

e|-----------------------------------------------------------------------------|
B|--8---------------8----------------------------------------------------------|
G|--9-------6-------9-------6--------------------------------------------------|
D|--9-------7-------9-------7--------------------------------------------------|
A|--7-------7-------7-------7--------------------------------------------------|
E|----------5---------------5--------------------------------------------------|

e|---------------------------------------------------------------------------|
B|---------------------------------------------------------------------------|
G|---------------------------------------------------------------------------|
D|---------------------------------------------------------------------------|
A|--7-77-77-77-7-5-55-55-55-5-7-77-77-77-7-5-55-55-55-5----------------------|
E|---------------------------------------------------------------------------|
   (x2)
e|--7\2---x7xx7xx7/12-12-12-12-----------------------------------------------|
B|--8\3---x8xx8xx8/13-13-12-12-----------------------------------------------|
G|--9\4---x9xx9xx9/14-14-12-12-----------------------------------------------|
D|---------------------------------------------------------------------------|
A|---------------------------------------------------------------------------|
E|---------------------------------------------------------------------------|

e|--7xx7xx7xx7xx7xx7xx7xx7---------------------------------------------------|
B|--8xx8xx8xx8xx8xx8xx8xx8-5xx5xx5xx5-8xx8xx9xx8-----------------------------|
G|--9xx9xx9xx9xx9xx9xx9xx9-6xx6xx6xx6-9xx9xx9xx9-----------------------------|
D|--9xx9xx9xx9xx9xx9xx9xx9-7xx7xx7xx7-10xx10xx10xx10-------------------------|
A|-------------------------7xx7xx7xx7-10xx10xx10xx10-------------------------|
E|---------------------------------------------------------------------------|

e|--7xx7xx7xx7xx7xx7xx7xx7---------------------------------------------------|
B|--8xx8xx8xx8xx8xx8xx8xx8-5xx5xx5xx5-8xx8xx9xx8-88-88-----------------------|
G|--9xx9xx9xx9xx9xx9xx9xx9-6xx6xx6xx6-9xx9xx9xx9-99-99-----------------------|
D|--9xx9xx9xx9xx9xx9xx9xx9-7xx7xx7xx7-10xx10xx10-1010-1010-------------------|
A|-------------------------7xx7xx7xx7-10xx10xx10-1010-1010-7~----------------|
E|---------------------------------------------------------------------------|

        (x2)
e|--7\2---x7xx7xx7/12-12-12-12-----------------------------------------------|
B|--8\3---x8xx8xx8/13-14-12-12-----------------------------------------------|
G|--9\4---x9xx9xx9/14-14-12-12-----------------------------------------------|
D|---------------------------------------------------------------------------|
A|---------------------------------------------------------------------------|
E|---------------------------------------------------------------------------|

e|--7xx7xx7xx7xx7xx7xx7xx7---------------------------------------------------|
B|--8xx8xx8xx8xx8xx8xx8xx8-5xx5xx5xx5-8xx8xx9xx8-----------------------------|
G|--9xx9xx9xx9xx9xx9xx9xx9-6xx6xx6xx6-9xx9xx9xx9-----------------------------|
D|--9xx9xx9xx9xx9xx9xx9xx9-7xx7xx7xx7-10xx10xx10xx10-------------------------|
A|-------------------------7xx7xx7xx7-10xx10xx10xx10-------------------------|
E|---------------------------------------------------------------------------|

e|--7xx7xx7xx7xx7xx7xx7xx7---------------------------------------------------|
B|--8xx8xx8xx8xx8xx8xx8xx8-5xx5xx5xx5-8xx8xx9xx8-88-88-----------------------|
G|--9xx9xx9xx9xx9xx9xx9xx9-6xx6xx6xx6-9xx9xx9xx9-99-99-----------------------|
D|--9xx9xx9xx9xx9xx9xx9xx9-7xx7xx7xx7-10xx10xx10-1010-1010-------------------|
A|-------------------------7xx7xx7xx7-10xx10xx10-1010-1010-7~----------------|
E|---------------------------------------------------------------------------|

      (x2)
e|------7--------------------------------------------------------------------|
B|----8----8---------88------------------------------------------------------|
G|--9--------8-88xx8888------------------------------------------------------|
D|-------------xxxxxxxx------------------------------------------------------|
A|-------------66xx6666---7~-------------------------------------------------|
E|---------------------------------------------------------------------------|

e|-------7-------------------------------------------------------------------|
B|----8-----8----------------------------------------------------------------|
G|--9---------8-88xx8888-----------------------------------------------------|
D|--------------xxxxxxxx-----------------------------------------------------|
A|--------------66xx6666-----------------------------------------------------|
E|---------------------------------------------------------------------------|

e|---------------------------------------------------------------------------|
B|---------------------------------------------------------------------------|
G|--99xxx99xxx55xxx44xxx22xxx22xxx55xxx44------------------------------------|
D|--xxxxxxxxxxxxxxxxxxxx22xxx22xxxxxxxxxx------------------------------------|
A|--77xxx77xxx33xxx22xxx00xxx00xxx33xxx22------------------------------------|
E|---------------------------------------------------------------------------|

e|---------------------------------------------------------------------------|
B|---------------------------------------------------------------------------|
G|--xxx99xxx99xxx55xxx44xxx22xxx22xxx55xxx44---------------------------------|
D|--xxxxxxxxxxxxxxxxxxxxxxx22xxx22xxxxxxxxxx---------------------------------|
A|--xxx77xxx77xxx33xxx22xxx00xxx00xxx33xxx22-7~------------------------------|
E|---------------------------------------------------------------------------|

e|---------------------------------------------------------------------------|
B|---------------------------------------------------------------------------|
G|--9-------------5----------------------------------------------------------|
D|--9-(x8)-7------5-(x4)-----------------------------------------------------|
A|--7------7-(x4)-3----------------------------------------------------------|
E|---------5-----------------------------------------------------------------|

e|---------------------------------------------------------------------------|
B|---------------------------------------------------------------------------|
G|--9-------------5----------------------------------------------------------|
D|--9-(x8)-7------5-(x4)-----------------------------------------------------|
A|--7------7-(x4)-3----------7~----------------------------------------------|
E|---------5-----------------------------------------------------------------|

hahaha!!! q onda ps aqui les dejo lo que para mi es mi version de esta rolisima de 
espero les guste y les sirva esta tab ah espero comentarios y sugerencias ya q es la primera 
q subo hahaha bueno chido!

| /  slide up
| \  slide down
| h  hammer-on
| p  pull-off
| ~  vibrato
| +  harmonic
| x  Mute note
===============================================================================
comments
We did not receive enough feedback on this tab! Please rate:
print report bad tab
1 2 3 4 5
I want to post or [tab]
guest
You may want to rate the tab now too:
select rating
Please do not post tabs as comments. Select "correction" instead!