Oops, an error
Loading. Please wait.

Oh It Is Love Tab

version 2
version 2

Whole song

26,146 views 15 this week
1 commentread comment
1 2 3 4 5
excellent!
x 5
add to favorites
launch autoscroll
font size
0
reset
how to read this tab
guitar tuner
Autoscroll
slow
fast
+/-
esc
set tempo
stop
Help us to improve Ultimate-Guitar.com Take our survey!
×
Contributor
Difficulty
novice
-----------------------------------------------------------------------------------------
Oh It Is Love - Hellogoodbye

jtitular@gmail.com

Tuning:Standard (E A D G B e)

Ok, so here’s what I have found to be a pretty accurate version of what forest plays… I 
up the lyrics to somewhat sync up w/ the timing, but you should be able to figure it 
umm, all you youtube-peoples, this is the tab I use…

   Oh it is    love from the first time I set my eyes upon…
   Yours   Thinking oh, is it love…
e|-333333------555555--------777777-------888888--------------------|
B|-333333------555555--------777777-------888888--------------------|
G|-444444------555555--------777777-------888888--------------------|
D|-555555------777777--------999999-------10101010------------------|
A|-xxxxxx------xxxxxx--------xxxxxx-------xxxxxx--------------------|
E|-xxxxxx------xxxxxx--------xxxxxx-------xxxxxx--------------------|

e|-------------/10--9---8----------------------------------------|
B|-------3-5-3-/10--9---8---10p8------------------8-10/11\10-8---|
G|-----4-------/11--10--9------------5-7-5------9--------------9-|
D|-3/5---------/12--11--10---------7-------7/10------------------|
A|--------------x---x---x----------------------------------------|
E|--------------x---x---x----------------------------------------|


Oh dear,         it’s been hardly a moment and you are already
missed           There is still a bit of your skin that I’ve yet to have kissed
                 Oh say please do not go but you know oh you know that I
must
                 Oh say I love you so you know oh you know you can…
e|-3--x--3------/-10-9—-8--8--x--x—-x—x--x-------8--8----|
B|-3--x--3-5p3--/-10-9—-8--8--x--x—-x—x--x-------8--8----|
G|-4--x--4------/-11-10-9--9--x--x—-x—x--x-------8—-8----|
D|-5--x--5------/-12-11-10-10-x—-x—-x—x--x------10-10----|
A|-x--x--x------/-x-----x--x--x--x—-x—x--x-------x—-x----|
E|-x--x--x------/-x-----x--x--x--x—-x—x--x-------x--x----|


   Trust    we’ll be        holding hands once again
            All our         broken plans I will mend
           And I will       kiss you soft so you know…
e|------10-10-10-10-10—-----8—-8—-8—-8—-8---|
B|------10—10-10-10-10------8—-8—-8—-8—-8---|
G|------11—11-11-11-11------9—-9-—9—-9—-9---|
D|--12--12—12-12-12-12--10--10-10-10-10-10--|
A|------x—-x—-x-—x-—x—------x—-x—-x—-x—-x---|
E|------x—-x—-x-—x-—x—------x—-x—-x—-x—-x---|


Oh it is    love from the first time I pressed my hand into yours…
      Thinking oh, is it love…
e|-333333------555555--------777777-------888888--------------------|
B|-333333------555555--------777777-------888888--------------------|
G|-444444------555555--------777777-------888888--------------------|
D|-555555------777777--------999999-------10101010------------------|
A|-xxxxxx------xxxxxx--------xxxxxx-------xxxxxx--------------------|
E|-xxxxxx------xxxxxx--------xxxxxx-------xxxxxx--------------------|


e|-------------/10--9---8----------------------------------------|
B|-------3-5-3-/10--9---8---10p8------------------8-10/11\10-8---|
G|-----4-------/11--10--9------------5-7-5------9--------------9-|
D|-3/5---------/12--11--10---------7-------7/10------------------|
A|--------------x---x---x----------------------------------------|
E|--------------x---x---x----------------------------------------|

Oh dear,         it’s been hardly three days yet I’m longing to feel your embrace
                 There are several days until I can see your sweet face
                 Oh say wouldn’t it be nice to be older and married with me
                 Oh say wouldn’t you like to know right now that we’ll…

e|--------------/-10-9—-8--8--x--x—-x—x--x-----------8--8----|
B|--------3-5-3-/-10-9—-8--8--x--x—-x—x--x-----------8--8----|
G|------4-------/-11-10-9--9--x--x—-x—x--x-----------8—-8----|
D|----5---------/-12-11-10-10-x—-x—-x—x--x-----------10-10---|
A|--------------/-x--x--x--x--x--x—-x—x--x-----------x—-x----|
E|--------------/-x--x--x--x--x--x—-x—x--x-----------x--x----|

    Be      one day         holding hands in the
    End     All our         broken plans will have
    Been    And I will      kiss you soft so you know
e|------10-10-10-10-10—-----8—-8—-8—-8—-8---|
B|------10—10-10-10-10------8—-8—-8—-8—-8---|
G|------11—11-11-11-11------9—-9-—9—-9—-9---|
D|--12--12—12-12-12-12--10--10-10-10-10-10--|
A|------x—-x—-x-—x-—x—------x—-x—-x—-x—-x---|
E|------x—-x—-x-—x-—x—------x—-x—-x—-x—-x---|

Oh it is    love from the first time I pressed my hand into yours…
      Thinking oh, is it love…
e|-333333------555555--------777777-------888888--------------------|
B|-333333------555555--------777777-------888888--------------------|
G|-444444------555555--------777777-------888888--------------------|
D|-555555------777777--------999999-------10101010------------------|
A|-xxxxxx------xxxxxx--------xxxxxx-------xxxxxx--------------------|
E|-xxxxxx------xxxxxx--------xxxxxx-------xxxxxx--------------------|


   Your heart may yearn for love that is more near
   So when I’m    gone these words will be    here
e|-10-------------8---------11----------------10----|
B|-10-------------8---------11----------------10----|
G|-11-------------9---------12----------------11----|
D|-12-------------10--------13----------------12—---|
A|-x--------------x---------x-----------------x-----|
E|-x--------------x---------x-----------------x-----|

To ease every              fear
And dry out all your       tears
And make it very           clear

e|---------------------------------------------------|
B|----12-------12-------12----12-------12-------12---|
G|-------12-------12-------------12-------12---------|
D|-13-------13-------13----12-------12-------12-—----|
A|---------------------------------------------------|
E|---------------------------------------------------|

I kiss you and I…
E|---------|
B|-12—12~--|
G|-12—12~--|
D|-13—13~--|
A|---------|
E|---------|

   Know    it is love        from the first         time I pressed my lips against
   Yours   thinking oh       is it love
e|-------3-----------------5----------------------7---------------8----|
B|-----3-----------------5----------------------7---------------8------|
G|---4-----------------5----------------------7---------------8--------|
D|-5-----------------7----------------------9--------------10----------|
A|---------------------------------------------------------------------|
E|---------------------------------------------------------------------|


   Yours   thinking oh       is it love
e|-------3-----------------5------------------7---8--8-----8-----------|
B|-----3-----------------5------------------7-----8--8-----8-----------|
G|---4-----------------5------------------7-------8--8-----8-----------|
D|-5-----------------7------------------9---------10-10----10----------|
A|------------------------------------------------x--x-----x-----------|
E|------------------------------------------------x--x-----x-----------|

Oh it is    love from the first time I pressed my hand into yours…
      Thinking oh, is it love…
e|-333333------555555--------777777-------888888--------------------|
B|-333333------555555--------777777-------888888--------------------|
G|-444444------555555--------777777-------888888--------------------|
D|-555555------777777--------999999-------10101010------------------|
A|-xxxxxx------xxxxxx--------xxxxxx-------xxxxxx--------------------|
E|-xxxxxx------xxxxxx--------xxxxxx-------xxxxxx--------------------|


| /  slide up
| \  slide down
| h  hammer-on
| p  pull-off
| ~  vibrato
| +  harmonic
| x  Mute note
===============================================================================
comments
print report bad tab
1 comment total.
+1 reply
TheFiveStar 56 wrote on February 7 2007, 07:43 pm

you can play
e|---------------------------------------------------|
B|----12-------12-------12----12-------12-------12---|
-G|-------12-------12-------------12-------12---------|
D|-13-------13-------13----12-------12-------12-—----|
A|---------------------------------------------------|
E|---------------------------------------------------|

like this

e|-----7--------7--------7------7-----7--------7-----|
B|--------8--------8--------------8------8-----------|
G|---8-------8--------8-----8-------7-------7--------|
D|---------------------------------------------—-----|
A|---------------------------------------------------|
E|---------------------------------------------------|

I want to post or [tab]
guest
You may want to rate the tab now too:
select rating
Please do not post tabs as comments. Select "correction" instead!